Nightwish

Nightwish - Bare Grace Misery guitar tab

Hope you like it enjoy

Intro/Refrain:

----------------------------------------------------------------------

----------------------------------------------------------------------

------7--7-5----------------------------------------------------------

-7--7-7--7-5-7--7-7--7-7--3---3---2---0-------------------------------

-7--7-5--5-3-7--7-7--7-7--3---------------3---2---3-2-0---------------

-5--5--------5--5-5--5-5--1-1---1---1---1---1---1---------------------

x x x x x x x x

----------------------------------------------------------------------

----------------------------------------------------------------------

------7--7-5----------------------------------------------------------

-7--7-7--7-5-7--7-7--7-7--2---3---7---3---5---------------------------

-7--7-5--5-3-7--7-7--7-7--2---3---7---3---5--5-5--5-5--5-5--5-5--5-5--

-5--5--------5--5-5--5-5--0---1---5---1---3--3-3--3-3--3-3--3-3--3-3--

x x x x x x x x x x x x

after the 1st verse:

----------------------------------------------------------------------

----------------------------------------------------------------------

----5-----------7-----------------------------------------------------

-7--5--5--7--2--7-----------------------------------------------------

-7--3--5--7--2--5-----------------------------------------------------

-5-----3--5--0--------------------------------------------------------

then play the Refrain, it ends with A

after the refrain:

----------------------------------------------------------------------

----------------------------------------------------------------------

----------------------------------------------------------------------

-10---10---9---9---7---7---10-9-7---10---10---9---9---7---7---5-7-9-5-

----0----0---0---0---0---0--------7----0----0---0---0---0---0---------

----------------------------------------------------------------------

x x x x x x x x x x x x

----------------------------------------------------------------------

----------------------------------------------------------------------

----------------------------------------------------------------------

-10---10---9---9---7---7---10-9-7---10---10---9---9---5---5-7-9-7-9-10

----0----0---0---0---0---0--------7----0----0---0---0---8-------------

----------------------------------------------------------------------

x x x x x x x x x x

----------------------------------------------------------------------

----------------------------------------------------------------------

----------------------------------------------------------------------

-10---10---9---9---7---7---10-9-7---10---10---9---9---7---7---5-7-9-5-

----0----0---0---0---0---0--------7----0----0---0---0---0---0---------

----------------------------------------------------------------------

x x x x x x x x x x x x

----------------------------------------------------------------------

----------------------------------------------------------------------

----------------------------------------------------------------------

-10---10---9---9---7---7---10-9-7---10---10---9---9---5---5-7-9-7-9-10

----0----0---0---0---0---0--------7----0----0---0---0---8-------------

----------------------------------------------------------------------

x x x x x x x x x x

----------------------------------------------------------------------

----------------------------------------------------------------------

-7--5-----------------------------------------------------------------

-7--5------------------2-2-2-2-2-2-2-2-7-7-7-7-7-7-7-7-7-7-7-7-7-7-7-7

-5--3--3-3-3-3-3-3-3-3-0-0-0-0-0-0-0-0-5-5-5-5-5-5-5-5-5-5-5-5-5-5-5-5

-------1-1-1-1-1-1-1-1------------------------------------------------

x x x x x x x x x x x x x x x x x x x x x x x x x x x x x x x x

----------------------------------------------------------------------

----------------------------------------------------------------------

----------------------------------------------------------------------

-10---10---9---9---7---7---10-9-7---10---10---9---9---7---7---5-7-9-5-

----0----0---0---0---0---0--------7----0----0---0---0---0---0---------

----------------------------------------------------------------------

x x x x x x x x x x x x

----------------------------------------------------------------------

----------------------------------------------------------------------

----------------------------------------------------------------------

-10---10---9---9---7---7---10-9-7---10---10---9---9---5---5-7-9-7-9-10

----0----0---0---0---0---0--------7----0----0---0---0---8-------------

----------------------------------------------------------------------

x x x x x x x x x x

play this 4 times: play this the last time:

------------------------------|---------------------------------------

------------------------------|---------------------------------------

------------------------------|---------------------------------------

---2----2----2---2------------|---2----2----2-------------------------

-2-2--2-2--2-2-2-2------------|-2-2--2-2--2-2-------------------------

-0-0--0-0--0-0-0-0------------|-0-0--0-0--0-0-------------------------

FreakMen

Get this song at:  amazon.com sheetmusicplus.com

Share your thoughts

0 Comments found