Nightwish

Nightwish - Away bass tab

The song starts with the chorus.

Chorus

G|--------------------------------|

D|--------------------------------|

A|-----3---6-------1---3---6-5----|

E|-3-1---3---1-3-----1---3-----3--|

After the second chorus

G|--------------------------|

D|--------------------------|

A|---5---6---5-----6-3-5----|

E|-6---6---3---1-3-------1--|

Chorus

G|---------------------------------|

D|---------------------------------|

A|-----3---6-----------------------|

E|-3-1---3---1-3---4-6-------------|

G|--------------------------------|

D|--------------------------------|

A|-3-1---3-----3---6-1---3-----3--|

E|-----1---4-6---------1---4-3----|

G|--------------------------------|

D|--------------------------------|

A|-6-1---3-----3---6-1---3-----3--|

E|-----1---4-6---------1---4-3----|

Get this song at:  amazon.com sheetmusicplus.com

Share your thoughts

0 Comments found