Nightwish

Nightwish - Astral Romance guitar tab

ASTRAL ROMANCE by NIGHTWISH

INTRO

e------------------------------------------------------------------------------------|

B------------------------------------------------------------------------------------|

G------------------------------------------------------------------------------------|

D-2---222-4-5-0---000-4-5------------------------------------------------------------|

A-----------------------------3---3--2--0---0--2--3--2-------------------------------|

E----------------------------------------------------0-------------------------------|

e------------------------------------------------------------------------------------|

B------------------------------------------------------------------------------------|

G-0---000-2-4-5-2---222-4/7-5---5--4--2---2--4--5--4---------------------------------|

D------------------------------------------------------------------------------------|

A------------------------------------------------------------------------------------|

E------------------------------------------------------------------------------------|

e------------------------------------------------------------------------------------|

B------------------------------------------------------------------------------------|

G-0---000-2-4-5-2---222-4/7-5---5--4--2----------------------------------------------|

D---------------------------------------------2--4--5--2-2(AH)-----------------------|

A---------------------------------------------0--2--3--2-----------------------------|

E------------------------------------------------------0-----------------------------|

e------------------------------------------------------------------------------------|

B------------------------------------------------------------------------------------|

G------------------------------------------------------------------------------------|

D-----------------------------------------------------------4-5-7-5------------------|

A-----3------3------3------3------1(AH)-----3------3------3-2-3-5-3------------------|

E-0-0-1--0-0-1--0-0-1--0-0-1--0-0-------0-0-1--0-0-1--0-0-1--------------------------|

p.m. . . . . . . . . . . . . . .

VERSE

(PLAY THE WHOLE VERSE TWICE)

(X2) (X2)

e---------------------------------|---------------------------------|-------------------|

B---------------------------------|---------------------------------|-------------------|

G---------------------------------|---------------------------------|-------------------|

D-----5-----4-----7-----5-----4/5-|-----5-----7-----5-----7-----5---|-------------------|

A-0-0-3-0-0-2-0-0-5-0-0-3-0-0-2/3-|-0-0-3-0-0-5-0-0-3-0-0-5-0-0-3---|-----3------3---3--|

E---------------------------------|---------------------------------|-0-0-1-0--0-1-0-1-0|

|pm.. . . . . . . . . . . . . . . . . . . . . . . . . .

|

|*note* (a second guitar could play this chords during the second time you play the verse)

| (X2) (X2)

e---------------------------------|---------------------------------|

B---------------------------------|---------------------------------|

G-------(let ring)----------------|--------(let ring)---------------|

D-----5---------------------------|------7--------------------------|

A-----3---------------------------|------5--------------------------|

E---------------------------------|---------------------------------|

(** 5 SEC pause in here!!!)

e-----------------------------------------------------------------------------|

B-------**--------------------------------------------------------------------|

G-----PAUSE-------------------------------------------------------------------|

D-5-5---------3--3/5----8-8-8-8-8-8-8-8-8-8---10-10-10-10-10-10-10-10-10-10---|

A-5-5---------3--3/5----6-6-6-6-6-6-6-6-6-6---8--8--8--8--8--8--8--8--8--8----|

E-3-3-------0-1--1/3----------------------------------------------------------|

pm .

VERSE

(REPEAT THIS TWICE)*note* at the first part palm mute only the G

e-----------------------------------------------------------------------------|

B-----------------------------------------------------------------------------|

G-----------------------------------------------------------------------------|

D----------------------------------------------3------------------------------|

A----------------------------------------------3-----5h6p5p3------------------|

E-3-3-6-3-3-6-3-3-5-3-3-5-3-3-5--3-3-6-3-3-6-3-1---3--------3-----------------|

pm . . . . . . . . . . . . . . .

e-------------------------------|------------------------------------------|

B-------------------------------|------------------------------------------|

G-------------------------------|------------------------------------------|

D-------------------------------|-8-8-8-8-8-8-8-8-8-10-10-10-10-10-10-10-10|

A-------------------------------|-6-6-6-6-6-6-6-6-6--8--8--8--8--8--8--8--8|

E-3-3-6-3-3-6-3-3-5-3-3-5-3-3-5-|------------------------------------------|

pm . . . . . . . . . . . . . . . . . . .

VERSE 3 !!**each part es played twice**!!

PART 1 (X2) (X3!!)

e-------------------------------------|------------------------------|

B-------------------------------------|------------------------------|

G-------------------------------------|------------------------------|

D-----5------5------3-----------------|------------------------------|

A---5---5--5---5--5---5-5h6p5p3h5p3---|-2-2-2-2-2-2-2-2-2-2-2--------|

E-3------3-------3------------------3-|-0-0-0-0-0-0-0-0-0-0-0--------|

pm . . . . . . . . . . . . . . . . . . . . . .

PART 2 (X2) (X3!!)

e-------------------------------------|------------------------------|

B-------------------------------------|------------------------------|

G-------------------------------------|------------------------------|

D-----6------6------4-----------------|------------------------------|

A---6---6--6---6--6---6-6h7p6p4h6p4---|-2-2-2-2-2-2-2-2-2-2-2--------|

E-4------4-------4------------------4-|-0-0-0-0-0-0-0-0-0-0-0--------|

pm . . . . . . . . . . . . . . . . . . . . . .

e------------|------------|------------------------------|

B------------|------------|------------------------------|

G------------|-KEYBOARD---|------------------------------|

D-2-LET RING-|------------|-5-4-2---2-4-5---2------------|

A-2----------|------------|-3-2-0---0-2-3---2------------|

E-0----------|------------|-----------------0------------|

X2

e---------------------------------------------------------|

B---------------------------------------------------------|

G-0---000-2-4-5-2---2-2-2-4/7-5---5--4--2---2--4--5--4--|

D---------------------------------------------------------|

A---------------------------------------------------------|

E---------------------------------------------------------|

SOLO!!!

e------------------------/15-14---------------------------|

B-------------------------------15~-----------------------|

G-12---12-12-12-14-16-17----------------------------------|

D-----------------------------------9-12-10-9-------------|

A---------------------------------------------10----------|

E---------------------------------------------------------|

e--------------------|

B-10h13p10-----------|

G---------12-9/14----|

D-----------------14-|

A--------------------|

E--------------------|

e----------------------------------------------------------------------|

B----------------------------------------------------------------------|

G---------------------------14-16-17-16-14-----------------------------|

D-(14)-------------14-16-17----------------17-16-14----17-16-14--------|

A---------14-15-17----------------------------------17----------17-14--|

E------17--------------------------------------------------------------|

e-----------------------------|

B-----------------------------|

G-------7-----5-----2---------|

D-2-----7-----5-----2---------|

A-2-----5-----3-----0---------|

E-0---------------------------|

e-----------------------------------TR----------------------------------|

B-12-10---------------------10---10/1310--------------------------------|

G-------12-11-9---999-11-12----------------11h12p11---------------------|

D--------------------------------------------------12/14----------------|

A-----------------------------------------------------------------------|

E-----------------------------------------------------------------------|

**make this 10p9h10 several times

e-----------------------------------------------------------------|

B--13-12-10-12-13-12-10-------------------------------------------|

G-----------------------12-11-9------------**---------------------|

D-------------------------------12-10-9-10p9h10--9h10p9-----------|

A-------------------------------------------------------10/12-----|

E-----------------------------------------------------------------|

e------------------------------------------------|

B--------------------------------------15h17h19--|

G---------------------14h16h17-14h16h17----------|

D---14h16h17-14h16h17----------------------------|

A------------------------------------------------|

E------------------------------------------------|

(X4)

e--------------17-----------|

B--17-20-19-20----20-19-20--| THEN REPEAT IT FAST FIVE TIMES AND END IN:

G---------------------------|

D---------------------------|

A---------------------------|

E---------------------------|

e-19-|

B----|

G----|

D----|

A----|

E----|

OUTRO

e-----------------------------------------------------------------------------|

B-17---17-17-17-19-20---------------19-20-----------------------------17-17\\\\--|

G---------------------19---19-19-19-------17---17-16-14---14-14-16-17---------|

D-----------------------------------------------------------------------------|

A-----------------------------------------------------------------------------|

E-----------------------------------------------------------------------------|

Get this song at:  amazon.com sheetmusicplus.com

Share your thoughts

0 Comments found