Nightwish

Nightwish - Amaranth guitar tab

Song: Amaranth

Group: Nightwish

Album: Dark Passion Play

Tabbed by Matt Sells

Palm Mute: M * * *

Slide Up: /

Slide Down: \

Vibrato: ~

Notes

1. The time markings are based on the music video (Update to follow release of single).

2. Many of the notes during the verse have slight mute on them. Listen to the song to

out when to mute.

3. Two dashes generally represent an eighth note.

Key Signature: D Minor

Tuning: Drop D

Piano Intro (0:00)

Guitar Intro (0:15)

|---|----------------------------------------------------------------|

|---|----------------------------------------------------------------|

|---|-------------------------5---5-------------------3-3---3-2---2--|

|-0>|-0-0---0-0---0---3-3---3-5---5-0-0-0---0-0---0---3-3---3-2---2--|

|-0>|-0-0---0-0---0---3-3---3-3---3-0-0-0---0-0---0---1-1---1-0---0--|

|-0>|-0-0---0-0---0---3-3---3-------0-0-0---0-0---0------------------|

|--------------------------------------------------------------------|

|--------------------------------------------------------------------|

|---------------------------5---5-3-3-3-3-3-3-3-3--------------------|

|-0-0-0---0-0---0---3-3---3-5---5-3-3-3-3-3-3-3-3-1-1-1-1-1-1-1-1----|

|-0-0-0---0-0---0---3-3---3-3---3-1-1-1-1-1-1-1-1-1-1-1-1-1-1-1-1----|

|-0-0-0---0-0---0---3-3---3-----------------------1-1-1-1-1-1-1-1----|

M * *

|---------------------------------------------------------------------|

|---------------------------------------------------------------------|

|---------------------------------------------------------------------|

|---6-6---5-5---3---0-1-0---0-1-0-------------------------------------|

|---6-6---5-5---3---0-1-0---0-1-0-------------------------------------|

|-0-6-6---5-5---3---0-1-0---0-1-0-------------------------------------|

M *

Verse I (0:33)

|---------------------------------------------------------------------|

|---------------------------------------------------------------------|

|---------------------------------------------------------------------|

|---------------------------------------------------------------------|

|---------------------------------------------------------------------|

|-0-0-0-0-0-0-0-0-0-0-0-0-0-0-0-0-0-0-0-0-0-0-0-0-0-0-0-0-0-0-0-0-----|

M * * * * * * * * * * * * * * * * * * * * * * * * * * * * * * * *

|---------------------------------------------------------------------|

|---------------------------------------------------------------------|

|---------------------------------------------------------------------|

|--------------------------------------------/5\3-2-2-2-2-2-2-2-2-----|

|--------------------------------------------/5\3-2-2-2-2-2-2-2-2-----|

|-0-0-0-0-0-0-0-0-0-0-0-0-0-0-0-0-0-0-0-0-0-0/5\3-2-2-2-2-2-2-2-2-----|

M * * * * * * * * * * * * * * * * * * * * * *

|---------------------------------------------------------------------|

|---------------------------------------------------------------------|

|---------------------------------------------------------------------|

|----/3-0----------------------------/5\3-----------------------------|

|----/3-0----------------------------/5\3-----------------------------|

|-0-0/3-0-0-0-0-0-0-0-0-0-0-0-0-0-0-0/5\3-0-0-0-0-0-0-0-0-0-0-0-0-----|

M * * * * * * * * * * * * * * * * * * * * * * * * * * * *

|---------------------------------------------------------------------|

|---------------------------------------------------------------------|

|---------------------------------------------------------------------|

|----/5-5----------------------------/5-0----/5\3-2-2-2-2-2-2-2-2-----|

|----/5-5----------------------------/5-0----/5\3-2-2-2-2-2-2-2-2-----|

|-0-0/5-5-0-0-0-0-0-0-0-0-0-0-0-0-0-0/5-0-0-0/5\3-2-2-2-2-2-2-2-2-----|

M * * * * * * * * * * * * * * * * * *

Lead In (1:03)

|---------------------------------------------------------------------|

|---------------------------------------------------------------------|

|---------------------------------------------------------------------|

|-3-5---3-5-5/\-3-0-0-0-0-0-0-0-0-3-5---3-5-5~~-3-1-1-1-1-1-1-1-1-----|

|-3-5---3-5-5/\-3-0-0-0-0-0-0-0-0-3-5---3-5-5~~-3-1-1-1-1-1-1-1-1-----|

|-3-5---3-5-5/\-3-0-0-0-0-0-0-0-0-3-5---3-5-5~~-3-1-1-1-1-1-1-1-1-----|

Chorus I (1:11)

|---------------------------------------------------------------------|

|---------------------------------------------------------------------|

|-----------3---3-----------5---5-----------3---3-----------5---5-----|

|-0-0-0---0-3---3---3-3---3-5---5-0-0-0---0-3---3---3-3---3-5---5-----|

|-0-0-0---0-1---1---3-3---3-3---3-0-0-0---0-1---1---3-3---3-3---3-----|

|-0-0-0---0---------3-3---3-------0-0-0---0---------3-3---3-----------|

|---------------------------------------------------------------------|

|---------------------------------------------------------------------|

|-----------3---3-----------5---5-3-3-3-3-3-3-3-3---------------------|

|-0-0-0---0-3---3---3-3---3-5---5-3-3-3-3-3-3-3-3-1-1-1-1-1-1-1-1-----|

|-0-0-0---0-1---1---3-3---3-3---3-1-1-1-1-1-1-1-1-1-1-1-1-1-1-1-1-----|

|-0-0-0---0---------3-3---3-----------------------1-1-1-1-1-1-1-1-----|

|---------------------------------------------------------------------|

|---------------------------------------------------------------------|

|---------------------------------------------------------------------|

|---6-6---5-5---3---0-1-0---0-1-0---6-6---5-5---3---0-1-0---0-1-0-----|

|---6-6---5-5---3---0-1-0---0-1-0---6-6---5-5---3---0-1-0---0-1-0-----|

|-0-6-6---5-5---3---0-1-0---0-1-0-0-6-6---5-5---3---0-1-0---0-1-0-----|

M * *

Verse II (1:33)

|---------------------------------------------------------------------|

|---------------------------------------------------------------------|

|-----------------7-----7~~~~---------------------3-----3~~~~---------|

|----/3-0---------7-----7~~~~--------/5\3---------3-----3~~~~---------|

|----/3-0----------------------------/5\3-----------------------------|

|-0-0/3-0-0-0-0-0-----------------0-0/5\3-0-0-0-0---------------------|

M * * * * * * * * * * * *

|---------------------------------------------------------------------|

|---------------------------------------------------------------------|

|-----------------5-----5~~~~-----------------------------------------|

|----/5-5---------5-----5~~~~--------/5-0----/5\3-2-2-2-2-2-2-2-2-----|

|----/5-5----------------------------/5-0----/5\3-2-2-2-2-2-2-2-2-----|

|-0-0/5-5-0-0-0-0-----------------0-0/5-0-0-0/5\3-2-2-2-2-2-2-2-2-----|

M * * * * * * * *

Lead In (1:48)

|---------------------------------------------------------------------|

|---------------------------------------------------------------------|

|---------------------------------------------------------------------|

|-3-5---3-5-5/\-3-0-0-0-0-0-0-0-0-3-5---3-5-5~~-3-1-1-1-1-1-1-1-1-----|

|-3-5---3-5-5/\-3-0-0-0-0-0-0-0-0-3-5---3-5-5~~-3-1-1-1-1-1-1-1-1-----|

|-3-5---3-5-5/\-3-0-0-0-0-0-0-0-0-3-5---3-5-5~~-3-1-1-1-1-1-1-1-1-----|

Chorus II (1:56)

|---------------------------------------------------------------------|

|---------------------------------------------------------------------|

|-----------3---3-----------5---5-----------3---3-----------5---5-----|

|-0-0-0---0-3---3---3-3---3-5---5-0-0-0---0-3---3---3-3---3-5---5-----|

|-0-0-0---0-1---1---3-3---3-3---3-0-0-0---0-1---1---3-3---3-3---3-----|

|-0-0-0---0---------3-3---3-------0-0-0---0---------3-3---3-----------|

|---------------------------------------------------------------------|

|---------------------------------------------------------------------|

|-----------3---3-----------5---5-3-3-3-3-3-3-3-3---------------------|

|-0-0-0---0-3---3---3-3---3-5---5-3-3-3-3-3-3-3-3-1-1-1-1-1-1-1-1-----|

|-0-0-0---0-1---1---3-3---3-3---3-1-1-1-1-1-1-1-1-1-1-1-1-1-1-1-1-----|

|-0-0-0---0---------3-3---3-----------------------1-1-1-1-1-1-1-1-----|

|---------------------------------------------------------------------|

|---------------------------------------------------------------------|

|-----------3---3-----------5---5-----------3---3-----------5---5-----|

|-0-0-0---0-3---3---3-3---3-5---5-0-0-0---0-3---3---3-3---3-5---5-----|

|-0-0-0---0-1---1---3-3---3-3---3-0-0-0---0-1---1---3-3---3-3---3-----|

|-0-0-0---0---------3-3---3-------0-0-0---0---------3-3---3-----------|

|---------------------------------------------------------------------|

|---------------------------------------------------------------------|

|-----------3---3-----------5---5-3-3-3-3-3-3-3-3-5-5-5-5-5-5-5-5-----|

|-0-0-0---0-3---3---3-3---3-5---5-3-3-3-3-3-3-3-3-5-5-5-5-5-5-5-5-----|

|-0-0-0---0-1---1---3-3---3-3---3-1-1-1-1-1-1-1-1-3-3-3-3-3-3-3-3-----|

|-0-0-0---0---------3-3---3-------------------------------------------|

|---------------------------------------------------------------------|

|---------------------------------------------------------------------|

|---------------------------------------------------------------------|

|---6-6---5-5---3---0-1-0---0-1-0---6-6---5-5---3---0-1-0---0-1-0-----|

|---6-6---5-5---3---0-1-0---0-1-0---6-6---5-5---3---0-1-0---0-1-0-----|

|-0-6-6---5-5---3---0-1-0---0-1-0-0-6-6---5-5---3---0-1-0---0-1-0-----|

M * *

Bridge (2:33)

|---------------------------------------------------------------------|

|---------------------------------------------------------------------|

|---------------------------------------------------------------------|

|---0-1-0---0-1-0---0-1-0---0-1-3---0-1-0---0-1-0---0-1-0---0-1-3-----|

|---0-1-0---0-1-0---0-1-0---0-1-3---0-1-0---0-1-0---0-1-0---0-1-3-----|

|-0-0-1-0---0-1-0---0-1-0---0-1-3-0-0-1-0---0-1-0---0-1-0---0-1-3-----|

M * *

|---------------------------------------------------------------------|

|---------------------------------------------------------------------|

|---------------------------------------------------------------------|

|---0-1-0---0-1-0---0-1-0---0-1-3---0-1-0---0-1-0---0-1-0---0-1-3-----|

|---0-1-0---0-1-0---0-1-0---0-1-3---0-1-0---0-1-0---0-1-0---0-1-3-----|

|-0-0-1-0---0-1-0---0-1-0---0-1-3-0-0-1-0---0-1-0---0-1-0---0-1-3-----|

M * *

|---------------------------------------------------------------------|

|---------------------------------------------------------------------|

|---------------------------------------------------------------------|

|---0-1-0---0-1-0---0-1-0---0-1-3---0-1-0---0-1-0---0-1-0---0-1-3-----|

|---0-1-0---0-1-0---0-1-0---0-1-3---0-1-0---0-1-0---0-1-0---0-1-3-----|

|-0-0-1-0---0-1-0---0-1-0---0-1-3-0-0-1-0---0-1-0---0-1-0---0-1-3-----|

M * *

|---------------------------------------------------------------------|

|---------------------------------------------------------------------|

|---------------------------------------------------------------------|

|---0-1-0---0-1-0---0-1-0---0-1-3---0-1-0---0-1-0---0-1-0---0-1-3-0---|

|---0-1-0---0-1-0---0-1-0---0-1-3---0-1-0---0-1-0---0-1-0---0-1-3-0---|

|-0-0-1-0---0-1-0---0-1-0---0-1-3-0-0-1-0---0-1-0---0-1-0---0-1-3-0---|

M * *

Piano Bridge (2:56)

Last Measure

|-------------------|

|-------------------|

|-------------------|

|-------------2---2-|

|-------------2---2-|

|-------------2---2-|

Chorus III (3:11)

|---------------------------------------------------------------------|

|---------------------------------------------------------------------|

|-----------3---3-----------7---7-----------5---5-----------7---7-----|

|-2-2-2---2-3---3---5-5---5-7---7-2-2-2---5-5---5---5-5---5-7---7-----|

|-2-2-2---2-3---3---5-5---5-5---5-2-2-2---2-3---3---5-5---5-5---5-----|

|-2-2-2---2---------5-5---5-------2-2-2---2---------5-5---5-----------|

|---------------------------------------------------------------------|

|---------------------------------------------------------------------|

|-----------3---3-----------7---7-5-5-5-5-5-5-5-5---------------------|

|-2-2-2---2-3---3---5-5---5-7---7-5-5-5-5-5-5-5-5-3-3-3-3-3-3-3-3-----|

|-2-2-2---2-3---3---5-5---5-5---5-3-3-3-3-3-3-3-3-3-3-3-3-3-3-3-3-----|

|-2-2-2---2---------5-5---5-----------------------3-3-3-3-3-3-3-3-----|

|---------------------------------------------------------------------|

|---------------------------------------------------------------------|

|-----------3---3-----------7---7-----------5---5-----------7---7-----|

|-2-2-2---2-3---3---5-5---5-7---7-2-2-2---5-5---5---5-5---5-7---7-----|

|-2-2-2---2-3---3---5-5---5-5---5-2-2-2---2-3---3---5-5---5-5---5-----|

|-2-2-2---2---------5-5---5-------2-2-2---2---------5-5---5-----------|

|---------------------------------------------------------------------|

|---------------------------------------------------------------------|

|-----------3---3-----------7---7-5-5-5-5-5-5-5-5-7-7-7-7-7-7-7-7-----|

|-2-2-2---2-3---3---5-5---5-7---7-5-5-5-5-5-5-5-5-7-7-7-7-7-7-7-7-----|

|-2-2-2---2-3---3---5-5---5-5---5-3-3-3-3-3-3-3-3-5-5-5-5-5-5-5-5-----|

|-2-2-2---2---------5-5---5-------------------------------------------|

Outro (3:41)

|---------------------------------------------------------------------|

|---------------------------------------------------------------------|

|---------------------------------------------------------------------|

|-0-6-6-0-5-5-0-3-3-0-1-0-0-0-1-0-0-6-6-0-5-5-0-3---0-1-0---0-1-0-----|

|-0-6-6-0-5-5-0-3-3-0-1-0-0-0-1-0-0-6-6-0-5-5-0-3---0-1-0---0-1-0-----|

|-0-6-6-0-5-5-0-3-3-0-1-0-0-0-1-0-0-6-6-0-5-5-0-3---0-1-0---0-1-0-----|

Get this song at:  amazon.com sheetmusicplus.com

Share your thoughts

0 Comments found