Nightwish

Nightwish - A Return To The Sea guitar tab

1:45)

e:-----------------------------|

B:-----------------------------|

G:-2-----------2---------------|

D:-2-----5-----2-----5---------|

A:-0-----5-----0-----5---------|

E:-------3-----------3---------|

(2:43)

A5 G5 F5 A5 G5 F5 A5

e:--------------------------------------------------------------------------|

B:---10---10*---10------------------8-10~--10-8-----------------------------|

G:-9----9-----9----97------------9-------------10-9---10-9-7---------------|

D:---------------------10-9-----------------------------------10-9----7~----|

A:--------------------------10*------------------------------------10-------|

E:--------------------------------------------------------------------------|

e:--------------------------------------------------------------------------|

B:--------------------------------------------------------------------------|

G:-2-----------------2-----------------2------------------------------------|

D:-2-----5-----3-----2-----5-----3-----2------------------------------------|

A:-0-----5-----3-----0-----5-----3-----0------------------------------------|

E:-------3-----1-----------3-----1------------------------------------------|

I play the solo like this :

A5 G5 F5 A5

e:---------------------------------------------------------------------------|

B:------------------------------------13-12h13p12-10-8-10--5/8-5h8p5h8p5h8p5-|

G:-------------------------------9/12----------------------------------------|

D:-7-9-10-----7-9-10------10-7-----------------------------------------------|

A:--------10---------10-7----------------------------------------------------|

E:---------------------------------------------------------------------------|

G5 F5 A5

e:-----------8-7-5---5------------------------------------------------------|

B:-10--5p7p8-------8---8-7---5----------------------------------------------|

G:-------------------------7---7-5-4p5h4------------------------------------|

D:---------------------------------------5-7--------------------------------|

A:--------------------------------------------------------------------------|

E:--------------------------------------------------------------------------|

Get this song at:  amazon.com sheetmusicplus.com

Share your thoughts

0 Comments found