Nightwish

Nightwish - 10th Man Down guitar tab

Intro

(0:18)

e:--------------------------------------------------------------------------|

B:--------------------------------------------------------------------------|

G:-2--------------2---------------------------------------------------------|

D:-2-------5--3---2--3--5--7------7-------7---------------------------------|

A:-0-------5--3---0--3--5--7------5-5-5-5-5-3-------3-----------------------|

E:---------3--1------1--3--5----------------1-1-1-1-1-----------------------|

e:---------------------------------------------------------------------------|

B:---------------------------------------------------------------------------|

G:---------------------------------------------------------------------------|

D:-5-5---------3-3---------5-5---------3-3-----8-7---------------------------|

A:-3-3-3-3-3-3-1-1-3-3-3-3-3-3-3-3-3-3-1-1-1-1-6-5---------------------------|

E:---------------------------------------------------------------------------|

e:--------------------------------------------------------------------------|

B:--------------------------------------------------------------------------|

G:--------------------------------------------------------------------------|

D:-5-5----3-3-5-------------------------------------------------------------|

A:-3-3-6--1-1-3--3-3-3-3-3-6-6-6-6-6----------------------------------------|

E:-----4---------1-1-1-1-1-4-4-4-4-4----------------------------------------|

Riff

e:----------------------------------------------------------------------------|

B:----------------------------------------------------------------------------|

G:----------------------------------------------------------------------------|

D:-------10---------------------10------5--3----------------------------------|

A:-7------8-8-8--5-5-7-7--7------8-8-8--5--3----------------------------------|

E:-5-5-5---------3-3-5-5--5-5-5---------3--1----------------------------------|

e:--------------------------------------------------------------------------|

B:--------------------------------------------------------------------------|

G:---------------------------------7-7----10-10-10--------------------------|

D:-7-----10-----10---12-12-14-14---7-7----10-10-10--------------------------|

A:-7------8-8-8--8-8-10-10-12-12---5-5-5---8--8--8--------------------------|

E:-5-5-5--------------------------------------------------------------------|

Verse

e:--------------------------------------------------------------------------|

B:--------------------------------------------------------------------------|

G:--------------------------------------------------------------------------|

D:-------------------------------10-------5--3------------------------------|

A:-7------3------5-5--7-7---7-----8-8-8---5--3------------------------------|

E:-5-5-5--1-1-1--3-3--5-5---5-5-5---------3--1------------------------------|

e:--------------------------------------------------------------------------|

B:--------------------------------------------------------------------------|

G:---------------------------------7-7-7--10-10-10---5----------------------|

D:-7-----10-----10---12-12-14-14---7-7-7--10-10-10---5----------------------|

A:-7------8-8-8--8-8-10-10-12-12---5-5-5---8--8--8---3---5-3-2~-------------|

E:-5-5-5--------------------------------------------------------------------|

Chorus

e:---------------------------------------------------------------------------|

B:---------------------------------------------------------------------------|

G:---------------------------------------------------------------------------|

D:-2-----------------5-----------------------------------5-4-----------------|

A:-0-0-0-0-0-0-0-0-5-3---2-------------------------------3-2-----------------|

E:-----------------3-----0-0-0-0-0-0-0-0-1-1-1-1-1-1-1-1---------------------|

e:--------------------------------------------------------------------------|

B:--------------------------------------------------------------------------|

G:--------------------------------------------------------------------------|

D:-2-----------------5-----------------------------------5-4----------------|

A:-0-0-0-0-0-0-0-0-5-3---3---------------5-5-5-5-5-5-5-5-3-2----------------|

E:-----------------3-----1-1-1-1-1-1-1-1------------------------------------|

Riff

Verse

Chorus

After the second chorus, play this :

e:------------------|

B:------------------|

G:------------------|

D:-2----------------|

A:-0-2-3-5-7-7------|

E:---0-1-3-5-5------|

e:----------------------------------------------------------------------------|

B:----------------------------------------------------------------------------|

G:-------------------------------------------------------------7--------------|

D:-------------------------------------------------------------7--------------|

A:-7-7-----8-7---7-7-10-7---7-7-8-5-8---7-7-----8-7---7-7-10-8-5--------------|

E:-5-5-5-5-6-5---5-5--8-5---5-5-6-3-6---5-5-5-5-6-5---5-5--8-6----------------|

e:--------------------------------------------------------------------------|

B:--------------------------------------------------------------------------|

G:--------------------------------------------------------------------------|

D:----------------------------------------------------------7-5-------------|

A:-7-7-----8-7---7-7-10-7---7-7-8-5-8---7-7-----8-7---7-7---5-3-5-----------|

E:-5-5-5-5-6-5---5-5--8-5---5-5-6-3-6---5-5-5-5-6-5---5-5-6-----3-----------|

repeat 2 times

3:00 * = artificial harmonic

e:--------------------------------------------------------------------------|

B:--------------------------------------------------------------------------|

G:----------------------------------------------------------------------7*--|

D:--------------------------------------------------------------------------|

A:-2-2-2-2--2-2-2-2-2-2-2--2-2-2-2--3--2-2-2-2--2-2-2-2-2-2-2--2-2-2-2------|

E:-0-0-0-0--0-0-0-0-0-0-0--0-0-0-0--1--0-0-0-0--0-0-0-0-0-0-0--0-0-0-0------|

e:--------------------------------------------------------------------------|

B:--------------------------------------------------------------------------|

G:--------------------------------------------------------------------------|

D:--------------------------------------------------------------------------|

A:-2-2-2-2---2-2-2-2-2-2-2-2-2-2-2---2-2-2-2-2-2-2---2-2-2-2---3-3----------|

E:-0-0-0-0---0-0-0-0-0-0-0-0-0-0-0---0-0-0-0-0-0-0---0-0-0-0---1-1----------|

e:---------------------------------------------------------------------------|

B:---------------------------------------------------------------------------|

G:---------------------------------------------------------------------------|

D:----------------------------------5-7--------------------------------------|

A:-2-2-2-2--2-2-2-2-2-2-2--2-2-2-2--3-5--2-2-2-2--2-2-2-2-2-2-2--2-2-2-2-3-3-|

E:-0-0-0-0--0-0-0-0-0-0-0--0-0-0-0-------0-0-0-0--0-0-0-0-0-0-0--0-0-0-0--1--|

e:--------------------------------------------------------------------------|

B:--------------------------------------------------------------------------|

G:--------------------------------------------------------------------------|

D:----------------------------------5-7-------------------------------------|

A:-2-2-2-2--2-2-2-2-2-2-2--2-2-2-2--3-5-------------------------------------|

E:-0-0-0-0--0-0-0-0-0-0-0--0-0-0-0------------------------------------------|

3:25 Tarja sings (listen to the song, I find this part hard to understand)

e:--------------------------------------------------------------------------|

B:--------------------------------------------------------------------------|

G:-2----2------2---------------2----2------2--5-----------------------------|

D:-2----2------2--5--0---------2----2------2--5--5--------------------------|

A:-0--5-0--3-5-0--5--0---------0--5-0--3-5-0--3--5--------------------------|

E:----3----1-3----3---------------3----1-3-------3--------------------------|

3:44

e:--------------------------------------------------------------------------|

B:--------------------------------------------------------------------------|

G:--------------------------------------------------------------------------|

D:-------------------------------7------------------------------------------|

A:-3---2-2-2-2--2-2-2-2-3-3-2--5-5------------------------------------------|

E:-1---0-0-0-0--0-0-0-0-1-1-0--3--------------------------------------------|

e:--------------------------------------------------------------------------|

B:--------------------------------------------------------------------------|

G:--------------------------------------------------------------------------|

D:------------------------------------7-------------------------------2---0-|

A:-2-2-2-2--2-2-2-2-2-2-2--2-2-2-2--5-5--2-2-2-2--2-2-2-2-2-2-2--2-2-2-2--0-|

E:-0-0-0-0--0-0-0-0-0-0-0--0-0-0-0--3----0-0-0-0--0-0-0-0-0-0-0--0-0-0-0----|

e:--------------------------------------------------------------------------|

B:--------------------------------------------------------------------------|

G:----------------------------------------------------------------------5---|

D:--------------------------------3-----------------------------------5-3---|

A:-5-5-5-5--5-5-5-5-6-6-5--5-5-5--1-3--5-5-5-5--5-5-5-5-6-6-5--5-5-5--3-----|

E:-3-3-3-3--3-3-3-3-4-4-3--3-3-3----1--3-3-3-3--3-3-3-3-4-4-3--3-3-3--------|

e:---------------------------------------------------------------------------|

B:---------------------------------------------------------------------------|

G:------------------------------------7*-------------------------------------|

D:--------------------------------------------------------------------2---0--|

A:-2-2-2-2--2-2-2-2-2-2-2--2-2-2-2--5----2-2-2-2--2-2-2-2-2-2-2--2-2-2-2--0--|

E:-0-0-0-0--0-0-0-0-0-0-0--0-0-0-0--3----0-0-0-0--0-0-0-0-0-0-0--0-0-0-0-----|

e:---------------------------------------------------------------------------|

B:---------------------------------------------------------------------------|

G:----------------------------------------------------------------------5----|

D:--------------------------------3-----------------------------------5-3----|

A:-5-5-5-5--5-5-5-5-6-6-5--5-5-5--1-3--5-5-5-5--5-5-5-5-6-6-5--5-5-5--3------|

E:-3-3-3-3--3-3-3-3-4-4-3--3-3-3----1--3-3-3-3--3-3-3-3-4-4-3--3-3-3---------|

4:19

e:--------------------------------------------------------------------------|

B:--------------------------------------------------------------------------|

G:-------------------------------------------------------------7------------|

D:-------------------------------------------------------------7------------|

A:-7-7-----8-7---7-7-10-7---7-7-8-5-8---7-7-----8-7---7-7-10-8-5------------|

E:-5-5-5-5-6-5---5-5--8-5---5-5-6-3-6---5-5-5-5-6-5---5-5--8-6--------------|

e:--------------------------------------------------------------------------|

B:--------------------------------------------------------------------------|

G:--------------------------------------------------------------------------|

D:----------------------------------------------------------7-5-------------|

A:-7-7-----8-7---7-7-10-7---7-7-8-5-8---7-7-----8-7---7-7---5-3-5-----------|

E:-5-5-5-5-6-5---5-5--8-5---5-5-6-3-6---5-5-5-5-6-5---5-5-6-----3-----------|

repeat 2 times

e:------------------|

B:------------------|

G:------------------|

D:-2----------------|

A:-0-2-3-5----------|

E:---0-1-3----------|

Chorus

e:--------------------------------------------------------------------------|

B:--------------------------------------------------------------------------|

G:--------------------------------------------------------------------------|

D:-2-----------------5-----------------------------------5-4----------------|

A:-0-0-0-0-0-0-0-0-5-3---2-------------------------------3-2----------------|

E:-----------------3-----0-0-0-0-0-0-0-0-1-1-1-1-1-1-1-1--------------------|

e:--------------------------------------------------------------------------|

B:--------------------------------------------------------------------------|

G:--------------------------------------------------------------------------|

D:-2-----------------5-----------------------------------5-4----------------|

A:-0-0-0-0-0-0-0-0-5-3---3---------------5-5-5-5-5-5-5-5-3-2----------------|

E:-----------------3-----1-1-1-1-1-1-1-1------------------------------------|

Play the chorus 2 times, then end with :

e:------------------|

B:------------------|

G:---------2--------|

D:-2-------2--------|

A:-0-2-3-5-0--------|

E:---0-1-3----------|

Get this song at:  amazon.com sheetmusicplus.com

Share your thoughts

0 Comments found