Nightwish

Nightwish - 10th Man Down bass tab

G||------------------|------------------|------------------|------------------|

D||------------------|------------------|------------------|------------------|

A||------------------|------------------|------------------|------------------|

E||------------------|------------------|------------------|------------------|

------------------|------------------|----------------------|

------------------|------------------|----------------------|

------------------|------------------|--0----0----0----0----|

------------------|------------------|----------------------|

----------------------|----------------------|----------------------|

----------------------|----------------------|----------------------|

--0----0----0----0----|--0----0----0----0----|----------------------|

----------------------|----------------------|--3----3----1----1----|

----------------------|----------------------|------------------|

----------------------|----------------------|------------------|

--0----0--------------|------------0----0----|------------------|

------------1----1----|--3----3--------------|------------------|

----------------------|--------------------|--------------------|

----------------------|--------------------|--------------------|

----------------------|--3--3--------------|--3--3--------------|

--1----1----1----1----|--------------------|--------------------|

--------------------|---------------------|--------------------------|

--------------------|-----------1----0----|--------------------------|

--3--3--------------|--1------------------|--3--3--3-----------------|

--------------------|---------------------|-----------4--4--4--4--4--|

--------------------------|--------------------------|

--------------------------|--------------------------|

--1--1--1--3--3--3--3--3--|--------------------------|

--------------------------|--1--1--1--1--1--1--1--1--|

--------------------------|----------------------|----------------------|

--------------------------|----------------------|----------------------|

--------------------------|--0----0----0----0----|--0----0----0----0----|

--4--4--4--4--4--4--4--4--|----------------------|----------------------|

----------------------|----------------------|----------------------|

----------------------|----------------------|----------------------|

--0----0----0----0----|----------------------|--0----0----0----0----|

----------------------|--3----3----1----1----|----------------------|

----------------------|----------------------|----------------------|

----------------------|--0----0----0----0----|----------------------|

--0----0----0----0----|----------------------|----------------------|

----------------------|----------------------|--1----1----1----1----|

--------------------------|--------------------------|

--------------------------|--------------------------|

--0--0--0--0--0--0--0--0--|--0--0--0--0--0--0--0--0--|

--------------------------|--------------------------|

--------------------------|--------------------------|

--------------------------|--------------------------|

--0--0--0--0--0--0--0--0--|--------------------------|

--------------------------|--3--3--3--3--1--1--1--1--|

--------------------------|--------------------------|-----------------------|

--------------------------|--------------------------|--0----0----0----0-----|

--0--0--0-----------------|--------------0--0--0--0--|-----------------------|

-----------1--1--1--1--1--|--3--3--3--3--------------|--------------------1--|

----------------------|-------------------|------------------|

----------------------|-------------------|------------------|

----------------------|-------------------|------------------|

----1----1----1----1--|--3----------------|------------------|

----------------------------------|----------------------------------|

----------------------------------|----------------------------------|

--0-0-0-0-0-0-0-0-0-0-0-0-0-0-0-0-|--0-0-0-0-0-0-0-0-0-0-0-0-3-3-3-3-|

----------------------------------|----------------------------------|

----------------------------------|----------------------------------|

--------------------------0-0-0-0-|--0-0-0-0-0-0-0-0-----------------|

----------------------------------|------------------3-3-3-3-2-2-2-2-|

--0-0-0-0-0-0-0-0-0-0-0-0---------|----------------------------------|

----------------------------------|----------------------------------|

----------------------------------|----------------------------------|

--0-0-0-0-0-0-0-0-0-0-0-0-0-0-0-0-|--0-0-0-0-0-0-0-0-0-0-0-0-3-3-3-3-|

----------------------------------|----------------------------------|

----------------------------------|----------------------------------|

--------------------------0-0-0-0-|--0-0-0-0-0-0-0-0-----------------|

----------------------------------|------------------3-3-3-3---------|

--1-1-1-1-1-1-1-1-1-1-1-1---------|--------------------------3-3-3-3-|

----------------------|----------------------|----------------------|

----------------------|----------------------|----------------------|

--0----0----0----0----|--0----0----0----0----|--0----0----0----0----|

----------------------|----------------------|----------------------|

----------------------|----------------------|----------------------|

----------------------|----------------------|----------------------|

----------------------|--0----0----0----0----|--0----0----0----0----|

--3----3----1----1----|----------------------|----------------------|

----------------------|----------------------|--------------------------|

--0----0----0----0----|----------------------|--------------------------|

----------------------|----------------------|--0--0--0--0--0--0--0--0--|

----------------------|--1----1----1----1----|--------------------------|

--------------------------|--------------------------|

--------------------------|--------------------------|

--0--0--0--0--0--0--0--0--|--0--0--0--0--0--0--0--0--|

--------------------------|--------------------------|

--------------------------|--------------------------|

--------------------------|--------------------------|

--------------------------|--0--0--0-----------------|

--3--3--3--3--1--1--1--1--|-----------1--1--1--1--1--|

--------------------------|-----------------------|----------------------|

--------------------------|--0----0----0----0-----|----------------------|

--------------0--0--0--0--|-----------------------|----------------------|

--3--3--3--3--------------|--------------------1--|----1----1----1----1--|

-------------------|------------------|----------------------------------|

-------------------|------------------|----------------------------------|

-------------------|------------------|--0-0-0-0-0-0-0-0-0-0-0-0-0-0-0-0-|

--3----------------|------------------|----------------------------------|

----------------------------------|----------------------------------|

----------------------------------|--------------------------0-0-0-0-|

--0-0-0-0-0-0-0-0-0-0-0-0-3-3-3-3-|----------------------------------|

----------------------------------|--0-0-0-0-0-0-0-0-0-0-0-0---------|

----------------------------------|----------------------------------|

--0-0-0-0-0-0-0-0-----------------|----------------------------------|

------------------3-3-3-3-2-2-2-2-|--0-0-0-0-0-0-0-0-0-0-0-0-0-0-0-0-|

----------------------------------|----------------------------------|

----------------------------------|----------------------------------|

----------------------------------|--------------------------0-0-0-0-|

--0-0-0-0-0-0-0-0-0-0-0-0-3-3-3-3-|----------------------------------|

----------------------------------|--1-1-1-1-1-1-1-1-1-1-1-1---------|

----------------------------------|----------------------|

--0-0-0-0-0-0-0-0-----------------|----------------------|

------------------3-3-3-3---------|--0-------------------|

--------------------------3-3-3-3-|-------0----1----3----|

----------------------|----------------------|----------------------|

----------------------|----------------------|----------------------|

--0--0-0--------------|--0--0-0--------------|--0--0-0--------------|

----------------------|----------------------|----------------------|

--------------------------|----------------------|----------------------|

--------------0--0-0------|----------------------|----------------------|

--1--1-1------------------|--0--0-0--------------|--0--0-0--------------|

--------------------------|----------------------|----------------------|

----------------------|----------------------------------|

----------------------|--0--0-0--0--0-0------------------|

--0--0-0--------------|------------------3--3-3----------|

----------------------|--------------------------3--3-3--|

----------------------------------|----------------------------|

----------------------------------|----------------------------|

--0--0-0--0--0-1--0--0-0--0--0-3--|--0--0-0--0--0-1-------1----|

----------------------------------|------------------3---------|

----------------------------------|--------------------|

----------------------------------|-----------0--------|

--0--0-0--0--0-1--0--0-0--0--0-3--|--1-----------------|

----------------------------------|--------------------|

----------------------------------|----------------------------|

----------------------------------|----------------------------|

--0--0-0--0--0-1--0--0-0--0--0-3--|--0--0-0--0--0-1-------1----|

----------------------------------|------------------3---------|

----------------------------------|---------------------|

----------------------------------|--0------------------|

--0--0-0--0--0-1--0--0-0--0--0-3--|-----------3---------|

----------------------------------|----------------3----|

-------------------------------|--------------------------|

-------------------------------|--------------------------|

-------------------------------|--------------------------|

--0--0-0--0----0--0-0--0--0-0--|--0----0--0-0--0--0--1----|

-------------------------------|--------------------------|

-------------------------------|--------------------------|

-------------------------------|--------------------------|

--0--0-0--0----0--0-0--0--0-0--|--0----0--0-0--0--0--1----|

-------------------------------|-------------------------------|

-------------------------------|-------------------------------|

-------------------------------|-------------------------------|

--0--0-0--0----0--0-0--0--0-0--|--0--0-0--0----0--0-0--0--0-0--|

--------------------------|-------------------------------|

--------------------------|-------------------------------|

--------------------------|-------------------------------|

--0----0--0-0--0--0--1----|--0--0-0--0----0--0-0--0--0-0--|

-------------------------|-------------------------------|

--------------------0----|-------------------------------|

---------------3---------|-------------------------------|

--0----0--0-0------------|--0--0-0--0----0--0-0--0--0-0--|

--------------------------|-------------------------------|

--------------------------|-------------------------------|

--------------------------|-------------------------------|

--0----0--0-0--0--0--1----|--0--0-0--0----0--0-0--0--0-0--|

-------------------------|----------------------------------|

--------------------0----|----------------------------------|

---------------3---------|--0--0-0--0--0-0--0--0-0----------|

--0----0--0-0------------|--------------------------3--3-3--|

----------------------------------|----------------------------------|

----------------------------------|----------------------------------|

--0--0-0--0--0-0------------------|--0--0-0--0--0-0------------------|

------------------1--1-1--3--3-3--|------------------3--3-3--3--3-3--|

---------------------------------|----------------------------------|

--0--0-0--0--0-0--0--0-0-0--0-0--|----------------------------------|

---------------------------------|--0--0-0--0--0-0--0--0-0----------|

---------------------------------|--------------------------3--3-3--|

----------------------------------|----------------------------------|

----------------------------------|----------------------------------|

--0--0-0--0--0-0------------------|--0--0-0--0--0-0--3--3-3--3--3-3--|

------------------1--1-1--3--3-3--|----------------------------------|

---------------------------------|------------------|------------------|

---------------------------------|------------------|------------------|

---------------------------------|------------------|------------------|

--3--3-3--3--3-3--3--3-3-3--3-3--|------------------|------------------|

------------------|------------------|-------------------------------|

------------------|------------------|-------------------------------|

------------------|------------------|-------------------------------|

------------------|------------------|--0--0-0--0----0--0-0--0--0-0--|

------------------------|-------------------------------|

------------------------|-------------------------------|

------------------------|-------------------------------|

--0----0--0-0--3--------|--0--0-0--0----0--0-0--0--0-0--|

-------------------------|-------------------------------|

--------------------0----|-------------------------------|

---------------0---------|-------------------------------|

--0----0--0-0------------|--3--3-3--3----3--3-3--3--3-3--|

-------------------------|-------------------------------|

-------------------------|-------------------------------|

---------------1---------|-------------------------------|

--3----3--3-3-------1----|--3--3-3--3----3--3-3--3--3-3--|

-------------------------|-------------------------------|

-------------------------|-------------------------------|

---------------3---------|-------------------------------|

--3----3--3-3-------1----|--0--0-0--0----0--0-0--0--0-0--|

------------------------|-------------------------------|

------------------------|-------------------------------|

------------------------|-------------------------------|

--0----0--0-0--3--------|--0--0-0--0----0--0-0--0--0-0--|

-------------------------|-------------------------------|

--------------------0----|-------------------------------|

---------------0---------|-------------------------------|

--0----0--0-0------------|--3--3-3--3----3--3-3--3--3-3--|

-------------------------|-------------------------------|

-------------------------|-------------------------------|

---------------1---------|-------------------------------|

--3----3--3-3-------1----|--3--3-3--3----3--3-3--3--3-3--|

-------------------------|----------------------------------|

-------------------------|----------------------------------|

---------------3---------|--0--0-0--0--0-1--0--0-0--0--0-3--|

--3----3--3-3-------1----|----------------------------------|

----------------------------|----------------------------------|

----------------------------|----------------------------------|

--0--0-0--0--0-1-------1----|--0--0-0--0--0-1--0--0-0--0--0-3--|

------------------3---------|----------------------------------|

--------------------|----------------------------------|

-----------0--------|----------------------------------|

--1-----------------|--0--0-0--0--0-1--0--0-0--0--0-3--|

--------------------|----------------------------------|

----------------------------|----------------------------------|

----------------------------|----------------------------------|

--0--0-0--0--0-1-------1----|--0--0-0--0--0-1--0--0-0--0--0-3--|

------------------3---------|----------------------------------|

---------------------|----------------------|----------------------------------|

--0------------------|----------------------|----------------------------------|

-----------3---------|--0-------------------|--0-0-0-0-0-0-0-0-0-0-0-0-0-0-0-0-|

----------------3----|-------0----1----3----|----------------------------------|

----------------------------------|----------------------------------|

----------------------------------|--------------------------0-0-0-0-|

--0-0-0-0-0-0-0-0-0-0-0-0-3-3-3-3-|----------------------------------|

----------------------------------|--0-0-0-0-0-0-0-0-0-0-0-0---------|

----------------------------------|----------------------------------|

--0-0-0-0-0-0-0-0-----------------|----------------------------------|

------------------3-3-3-3-2-2-2-2-|--0-0-0-0-0-0-0-0-0-0-0-0-0-0-0-0-|

----------------------------------|----------------------------------|

----------------------------------|----------------------------------|

----------------------------------|--------------------------0-0-0-0-|

--0-0-0-0-0-0-0-0-0-0-0-0-3-3-3-3-|----------------------------------|

----------------------------------|--1-1-1-1-1-1-1-1-1-1-1-1---------|

----------------------------------|----------------------------------|

--0-0-0-0-0-0-0-0-----------------|----------------------------------|

------------------3-3-3-3---------|--0-0-0-0-0-0-0-0-0-0-0-0-0-0-0-0-|

--------------------------3-3-3-3-|----------------------------------|

----------------------------------|----------------------------------|

----------------------------------|--------------------------0-0-0-0-|

--0-0-0-0-0-0-0-0-0-0-0-0-3-3-3-3-|----------------------------------|

----------------------------------|--0-0-0-0-0-0-0-0-0-0-0-0---------|

----------------------------------|----------------------------------|

--0-0-0-0-0-0-0-0-----------------|----------------------------------|

------------------3-3-3-3-2-2-2-2-|--0-0-0-0-0-0-0-0-0-0-0-0-0-0-0-0-|

----------------------------------|----------------------------------|

----------------------------------|----------------------------------|

----------------------------------|--------------------------0-0-0-0-|

--0-0-0-0-0-0-0-0-0-0-0-0-3-3-3-3-|----------------------------------|

----------------------------------|--1-1-1-1-1-1-1-1-1-1-1-1---------|

----------------------------------|----------------------|-------------------|

--0-0-0-0-0-0-0-0-----------------|----------------------|-------------------|

------------------3-3-3-3---------|--0-------------------|--0----------------|

--------------------------3-3-3-3-|-------0----1----3----|-------------------|

------------------|------------------||

------------------|------------------||

------------------|------------------||

------------------|------------------||

Taken from The BassMasta -- http://www.tabs-database.com

Get this song at:  amazon.com sheetmusicplus.com

Share your thoughts

0 Comments found