Nico

Nico - These Days guitar tab

Tabbed By: Stephen Mirabito

Capo on 5th fret

INTRO

^ ^ ^ ^ ^ ^ ^ ^ ^ ^ ^ ^ ^ ^ ^ ^

|----------------|----------------|----------------|--------0-------|

|1---------------|1---------------|----1-----------|----1-----------|

|------0-------0-|------2-------0-|2-------------2-|----------------|

|----2-------0---|----2-------0---|----3-------3---|----3-------3---|

|3-------0/2-----|0---------------|----------------|----------------|

|----------------|--------3-------|1-------1-------|1-------1-------|

^ ^ ^ ^ ^ ^ ^ ^ ^ ^ ^ ^ ^ ^ ^ ^

|----------------|----------------|----------------|--------0-------|

|1---------------|1---------------|----1-----------|----1-----------|

|------0-------0-|------2-------0-|2-------------2-|--------------2-|

|----2-------0---|----2-------0---|----3-------3---|----3-------3---|

|3-------0/2-----|0---------------|----------------|----------------|

|----------------|--------3-------|1-------1-------|1-------1-------|

^ ^ ^ ^ ^ ^ ^ ^

|--------0-------|--------0-------|

|----1-----------|----1-----------|

|--------------2-|----------------|

|----3-------3---|----3-------3---|

|----------------|----------------|

|1-------1-------|1-------1-------|

^ ^ ^ ^ ^ ^ ^ ^ ^ ^ ^ ^ ^ ^ ^ ^

|----------1-----|----------1-----|----------1-----|----------1-----|

|1---------------|1---------------|1---------------|1---------------|

|------0-------0-|------0-------0-|------0-------0-|------0-------0-|

|----2-------2---|----2-------2---|----2-------2---|----2-------2---|

|3---------------|3---------------|3---------------|3---------------|

|--------3-------|--------3-------|--------3-------|--------3-------|

VERSE ONE

I've been... I don't

^ ^ ^ ^ ^ ^ ^ ^ ^ ^ ^ ^ ^ ^ ^ ^

|----------------|----------------|----------------|--------0-------|

|1---------------|1---------------|----1-----------|----1-----------|

|------0-------0-|------2-------0-|2-------------2-|----------------|

|----2-------0---|----2-------0---|----3-------3---|----3-------3---|

|3-------0/2-----|0---------------|----------------|----------------|

|----------------|--------3-------|1-------1-------|1-------1-------|

do...

^ ^ ^ ^ ^ ^ ^ ^ ^ ^ ^ ^ ^ ^ ^ ^

|----------------|----------------|----------------|--------0-------|

|1---------------|1---------------|----1-----------|----1-----------|

|------0-------0-|------2-------0-|2-------------2-|--------------2-|

|----2-------0---|----2-------0---|----3-------3---|----3-------3---|

|3-------0/2-----|0---------------|----------------|----------------|

|----------------|--------3-------|1-------1-------|1-------1-------|

These days... These

^ ^ ^ ^ ^ ^ ^ ^ ^ ^ ^ ^ ^ ^ ^ ^

|----------0-----|----------0-----|----------0-----|----------0-----|

|0---------------|0---------------|0---------------|0---------------|

|------0-------0-|------0-------0-|------0-------0-|------0-------0-|

|----0-------0---|----0-------0---|----0-------0---|----0-------0---|

|2---------------|2---------------|2---------------|2---------------|

|--------3-------|--------3-------|--------3-------|--------3-------|

days... i forgot to

^ ^ ^ ^ ^ ^ ^ ^

|----------------|--------0-------|--------0-------|--------0-------|

|----1-----------|----1-------1---|----1-------1---|----1-------1---|

|2-------------2-|--------------2-|--------------2-|--------------2-|

|----3-------3---|----3-----------|----3-----------|----3-----------|

|----------------|----------------|----------------|----------------|

|1-------1-------|1-------1-------|1-------1-------|1-------1-------|

do... and

^ ^ ^ ^ ^ ^ ^ ^ ^ ^ ^ ^ ^ ^ ^ ^

|0---------------|0---------------|----------------|----------------|

|1---------------|1---------------|0---------------|----------------|

|0---------------|0---------------|0---------------|----------------|

|2---------------|2---------------|0-------0/2-----|0-----------0---|

|3---------------|3---------------|2---------------|--------0/2-----|

|----------------|----------------|3---------------|----------------|

all...

^ ^ ^ ^ ^ ^ ^ ^ ^ ^ ^ ^ ^ ^ ^ ^

|----------------|----------------|----------------|--------0-------|

|1---------------|1---------------|----1-----------|----1-------1---|

|------0-------0-|------2-------0-|2-------------2-|--------------2-|

|----2-------0---|----2-------0---|----3-------3---|----3-----------|

|3-------0/2-----|0---------------|----------------|----------------|

|----------------|--------3-------|1-------1-------|1-------1-------|

...The chance to...

^ ^ ^ ^ ^ ^ ^ ^ ^ ^ ^ ^ ^ ^ ^ ^

|--------0-------|--------0-------|--------------0-|----------------|

|----1-------1---|----1-------1---|----1-----------|1---------1-----|

|--------------2-|--------------2-|----------------|------0-------0-|

|----3-----------|----3-----------|----3-----------|----2-------2---|

|----------------|----------------|----------------|3-------3-------|

|1-------1-------|1-------1-------|1-------1-------|----------------|

^ ^ ^ ^ ^ ^ ^ ^ ^ ^ ^ ^ ^ ^ ^ ^

|----------1-----|----------1-----|----------1-----|----------1-----|

|1---------------|1---------------|1---------------|1---------------|

|------0-------0-|------0-------0-|------0-------0-|------0-------0-|

|----2-------2---|----2-------2---|----2-------2---|----2-------2---|

|3---------------|3---------------|3---------------|3---------------|

|--------3-------|--------3-------|--------3-------|--------3-------|

VERSE TWO

I stopped my... I don't

^ ^ ^ ^ ^ ^ ^ ^ ^ ^ ^ ^ ^ ^ ^ ^

|----------------|----------------|----------------|--------0-------|

|1---------------|1---------------|----1-----------|----1-----------|

|------0-------0-|------2-------0-|2-------------2-|----------------|

|----2-------0---|----2-------0---|----3-------3---|----3-------3---|

|3-------0/2-----|0---------------|----------------|----------------|

|----------------|--------3-------|1-------1-------|1-------1-------|

do...

^ ^ ^ ^ ^ ^ ^ ^ ^ ^ ^ ^ ^ ^ ^ ^

|----------------|----------------|----------------|--------0-------|

|1---------------|1---------------|----1-----------|----1-----------|

|------0-------0-|------2-------0-|2-------------2-|----------------|

|----2-------0---|----2-------0---|----3-------3---|----3-------3---|

|3-------0/2-----|0---------------|----------------|----------------|

|----------------|--------3-------|1-------1-------|1-------1-------|

These days... These

^ ^ ^ ^ ^ ^ ^ ^ ^ ^ ^ ^ ^ ^ ^ ^

|----------0-----|----------0-----|----------0-----|----------0-----|

|0---------------|0---------------|0---------------|0---------------|

|------0-------0-|------0-------0-|------0-------0-|------0-------0-|

|----0-------0---|----0-------0---|----0-------0---|----0-------0---|

|2---------------|2---------------|2---------------|2---------------|

|--------3-------|--------3-------|--------3-------|--------3-------|

days... came about my

^ ^ ^ ^ ^ ^ ^ ^

|----------------|--------0-------|--------0-------|--------0-------|

|----1-----------|----1-------1---|----1-------1---|----1-------1---|

|2-------------2-|--------------2-|--------------2-|--------------2-|

|----3-------3---|----3-----------|----3-----------|----3-----------|

|----------------|----------------|----------------|----------------|

|1-------1-------|1-------1-------|1-------1-------|1-------1-------|

ways... and

^ ^ ^ ^ ^ ^ ^ ^ ^ ^ ^ ^ ^ ^ ^ ^

|0---------------|0---------------|----------------|----------------|

|1---------------|1---------------|0---------------|----------------|

|0---------------|0---------------|0---------------|----------------|

|2---------------|2---------------|0-------0/2-----|0---0-------0---|

|3---------------|3---------------|2---------------|--------0/2-----|

|----------------|----------------|3---------------|----------------|

I wonder...

^ ^ ^ ^ ^ ^ ^ ^ ^ ^ ^ ^ ^ ^ ^ ^

|----------------|----------------|----------------|--------0-------|

|1---------------|1---------------|----1-----------|----1-------1---|

|------0-------0-|------2-------0-|2-------------2-|--------------2-|

|----2-------0---|----2-------0---|----3-------3---|----3-----------|

|3-------0/2-----|0---------------|----------------|----------------|

|----------------|--------3-------|1-------1-------|1-------1-------|

^ ^ ^ ^ ^ ^ ^ ^ ^ ^ ^ ^ ^ ^ ^ ^

|--------0-------|--------0-------|--------0-------|--------0-------|

|----1-------1---|----1-------1---|----1-------1---|----1-------1---|

|--------------2-|--------------2-|--------------2-|--------------2-|

|----3-----------|----3-----------|----3-----------|----3-----------|

|----------------|----------------|----------------|----------------|

|1-------1-------|1-------1-------|1-------1-------|1-------1-------|

...highway...

^ ^ ^ ^ ^ ^ ^ ^ ^ ^ ^ ^ ^ ^ ^ ^

|----------1-----|----------1-----|----------1-----|----------1-----|

|1---------------|1---------------|1---------------|1---------------|

|------0-------0-|------0-------0-|------0-------0-|------0-------0-|

|----2-------2---|----2-------2---|----2-------2---|----2-------2---|

|3---------------|3---------------|3---------------|3---------------|

|--------3-------|--------3-------|--------3-------|--------3-------|

^ ^ ^ ^ ^ ^ ^ ^

|----------1-----|----------1-----|

|1---------------|1---------------|

|------0-------0-|------0-------0-|

|----2-------2---|----2-------2---|

|3---------------|3---------------|

|--------3-------|--------3-------|

VERSE THREE

I had a lover... I don't

^ ^ ^ ^ ^ ^ ^ ^ ^ ^ ^ ^ ^ ^ ^ ^

|----------------|----------------|----------------|--------0-------|

|1---------------|1---------------|----1-----------|----1-----------|

|------0-------0-|------2-------0-|2-------------2-|----------------|

|----2-------0---|----2-------0---|----3-------3---|----3-------3---|

|3-------0/2-----|0---------------|----------------|----------------|

|----------------|--------3-------|1-------1-------|1-------1-------|

think...

^ ^ ^ ^ ^ ^ ^ ^ ^ ^ ^ ^ ^ ^ ^ ^

|----------------|----------------|----------------|--------0-------|

|1---------------|1---------------|----1-----------|----1-----------|

|------0-------0-|------2-------0-|2-------------2-|----------------|

|----2-------0---|----2-------0---|----3-------3---|----3-------3---|

|3-------0/2-----|0---------------|----------------|----------------|

|----------------|--------3-------|1-------1-------|1-------1-------|

These days... These

^ ^ ^ ^ ^ ^ ^ ^ ^ ^ ^ ^ ^ ^ ^ ^

|----------0-----|----------0-----|----------0-----|----------0-----|

|0---------------|0---------------|0---------------|0---------------|

|------0-------0-|------0-------0-|------0-------0-|------0-------0-|

|----0-------0---|----0-------0---|----0-------0---|----0-------0---|

|2---------------|2---------------|2---------------|2---------------|

|--------3-------|--------3-------|--------3-------|--------3-------|

days...

^ ^ ^ ^ ^ ^ ^ ^

|----------------|--------0-------|--------0-------|--------0-------|

|----1-----------|----1-------1---|----1-------1---|----1-------1---|

|2-------------2-|--------------2-|--------------2-|--------------2-|

|----3-------3---|----3-----------|----3-----------|----3-----------|

|----------------|----------------|----------------|----------------|

|1-------1-------|1-------1-------|1-------1-------|1-------1-------|

song... its

^ ^ ^ ^ ^ ^ ^ ^ ^ ^ ^ ^ ^ ^ ^ ^

|0---------------|0---------------|----------------|----------------|

|1---------------|1---------------|0---------------|----------------|

|0---------------|0---------------|0---------------|----------------|

|2---------------|2---------------|0-------0/2-----|0-----------0---|

|3---------------|3---------------|2---------------|--------0/2-----|

|----------------|----------------|3---------------|----------------|

just that...

^ ^ ^ ^ ^ ^ ^ ^ ^ ^ ^ ^ ^ ^ ^ ^

|----------------|----------------|----------------|--------0-------|

|1---------------|1---------------|----1-----------|----1-------1---|

|------0-------0-|------2-------0-|2-------------2-|--------------2-|

|----2-------0---|----2-------0---|----3-------3---|----3-----------|

|3-------0/2-----|0---------------|----------------|----------------|

|----------------|--------3-------|1-------1-------|1-------1-------|

so.... long...

^ ^ ^ ^ ^ ^ ^ ^ ^ ^ ^ ^ ^ ^ ^ ^

|--------0-------|--------0-------|--------0-------|--------0-------|

|----1-------1---|----1-------1---|----1-------1---|----1-------1---|

|--------------2-|--------------2-|--------------2-|--------------2-|

|----3-----------|----3-----------|----3-----------|----3-----------|

|----------------|----------------|----------------|----------------|

|1-------1-------|1-------1-------|1-------1-------|1-------1-------|

(i am bambuzzled with this part and the solo so i filled it with

stuff we've already heard)

^ ^ ^ ^ ^ ^ ^ ^

|--------0-------|--------0-------|

|----1-------1---|----1-------1---|

|--------------2-|--------------2-|

|----3-----------|----3-----------|

|----------------|----------------|

|1-------1-------|1-------1-------|

SOLO

^ ^ ^ ^ ^ ^ ^ ^ ^ ^ ^ ^ ^ ^ ^ ^

|----------------|----------------|----------------|--------0-------|

|1---------------|1---------------|----1-----------|----1-----------|

|------0-------0-|------2-------0-|2-------------2-|----------------|

|----2-------0---|----2-------0---|----3-------3---|----3-------3---|

|3-------0/2-----|0---------------|----------------|----------------|

|----------------|--------3-------|1-------1-------|1-------1-------|

^ ^ ^ ^ ^ ^ ^ ^ ^ ^ ^ ^ ^ ^ ^ ^

|----------------|----------------|----------------|--------0-------|

|1---------------|1---------------|----1-----------|----1-----------|

|------0-------0-|------2-------0-|2-------------2-|--------------2-|

|----2-------0---|----2-------0---|----3-------3---|----3-------3---|

|3-------0/2-----|0---------------|----------------|----------------|

|----------------|--------3-------|1-------1-------|1-------1-------|

^ ^ ^ ^ ^ ^ ^ ^ ^ ^ ^ ^ ^ ^ ^ ^

|--------0-------|--------0-------|--------0-------|--------0-------|

|----1-------1---|----1-------1---|----1-------1---|----1-------1---|

|--------------2-|--------------2-|--------------2-|--------------2-|

|----3-----------|----3-----------|----3-----------|----3-----------|

|----------------|----------------|----------------|----------------|

|1-------1-------|1-------1-------|1-------1-------|1-------1-------|

^ ^ ^ ^ ^ ^ ^ ^ ^ ^ ^ ^ ^ ^ ^ ^

|----------1-----|----------1-----|----------1-----|----------------|

|1---------------|1---------------|1---------------|1---------1-----|

|------0-------0-|------0-------0-|------0-------0-|------0-------0-|

|----2-------2---|----2-------2---|----2-------2---|----2-------2---|

|3---------------|3---------------|3---------------|3-------3-------|

|--------3-------|--------3-------|--------3-------|----------------|

FINAL VERSE

I stopped my.. I won't

^ ^ ^ ^ ^ ^ ^ ^ ^ ^ ^ ^ ^ ^ ^ ^

|----------------|----------------|----------------|--------0-------|

|1---------------|1---------------|----1-----------|----1-----------|

|------0-------0-|------2-------0-|2-------------2-|----------------|

|----2-------0---|----2-------0---|----3-------3---|----3-------3---|

|3-------0/2-----|0---------------|----------------|----------------|

|----------------|--------3-------|1-------1-------|1-------1-------|

do...

^ ^ ^ ^ ^ ^ ^ ^ ^ ^ ^ ^ ^ ^ ^ ^

|----------------|----------------|----------------|--------0-------|

|1---------------|1---------------|----1-----------|----1-----------|

|------0-------0-|------2-------0-|2-------------2-|----------------|

|----2-------0---|----2-------0---|----3-------3---|----3-------3---|

|3-------0/2-----|0---------------|----------------|----------------|

|----------------|--------3-------|1-------1-------|1-------1-------|

These days... These

^ ^ ^ ^ ^ ^ ^ ^ ^ ^ ^ ^ ^ ^ ^ ^

|----------0-----|----------0-----|----------0-----|----------0-----|

|0---------------|0---------------|0---------------|0---------------|

|------0-------0-|------0-------0-|------0-------0-|------0-------0-|

|----0-------0---|----0-------0---|----0-------0---|----0-------0---|

|2---------------|2---------------|2---------------|2---------------|

|--------3-------|--------3-------|--------3-------|--------3-------|

days... quarter tones to...

^ ^ ^ ^ ^ ^ ^ ^

|----------------|--------0-------|--------0-------|--------0-------|

|----1-----------|----1-------1---|----1-------1---|----1-------1---|

|2-------------2-|--------------2-|--------------2-|--------------2-|

|----3-------3---|----3-----------|----3-----------|----3-----------|

|----------------|----------------|----------------|----------------|

|1-------1-------|1-------1-------|1-------1-------|1-------1-------|

ten... please don't

^ ^ ^ ^ ^ ^ ^ ^ ^ ^ ^ ^ ^ ^ ^ ^

|0---------------|0---------------|----------------|----------------|

|1---------------|1---------------|0---------------|----------------|

|0---------------|0---------------|0---------------|----------------|

|2---------------|2---------------|0-------0/2-----|0-----------0---|

|3---------------|3---------------|2---------------|--------0/2-----|

|----------------|----------------|3---------------|----------------|

confront me...

^ ^ ^ ^ ^ ^ ^ ^ ^ ^ ^ ^ ^ ^ ^ ^

|----------------|----------------|----------------|--------0-------|

|1---------------|1---------------|----1-----------|----1-------1---|

|------0-------0-|------2-------0-|2-------------2-|--------------2-|

|----2-------0---|----2-------0---|----3-------3---|----3-----------|

|3-------0/2-----|0---------------|----------------|----------------|

|----------------|--------3-------|1-------1-------|1-------1-------|

I.. had...

^ ^ ^ ^ ^ ^ ^ ^ ^ ^ ^ ^ ^ ^ ^ ^

|--------0-------|--------0-------|--------0-------|--------0-------|

|----1-------1---|----1-------1---|----1-------1---|----1-------1---|

|--------------2-|--------------2-|--------------2-|--------------2-|

|----3-----------|----3-----------|----3-----------|----3-----------|

|----------------|----------------|----------------|----------------|

|1-------1-------|1-------1-------|1-------1-------|1-------1-------|

^ ^ ^ ^ ^ ^ ^ ^ ^ ^ ^ ^ ^ ^ ^ ^

|----------------|----------------|----------------|----------------|

|1---------------|1---------------|----1-----------|------1-------1-|

|------0-------0-|------2-------0-|2---------------|0/2-------0/2---|

|----2-------0---|----2-------0---|----3-------3---|----------------|

|3-------0/2-----|0---------------|----------------|----------------|

|----------------|--------3-------|1-------1-------|1--------1------|

^ ^ ^ ^ ^ ^ ^ ^

|----------------|3---------------|

|1---------1-----|1---------------|

|------0-------0-|0---------------|

|----2-------2---|2---------------|

|3-------3-------|3---------------|

|----------------|----------------|

I've been out walking

I don't do too much talking

These days, these days.

These days I seem to think a lot

About the things that I forgot to do

And all the times I had the chance to.

I've stopped my rambling,

I don't do too much gambling

These days, these days.

These days I seem to think about

How all the changes came about my ways

And I wonder if I'll see another highway.

I had a lover,

I don't think I'll risk another

These days, these days.

And if I seem to be afraid

To live the life that I have made in song

It's just that I've been losing so long.

La la la la la, la la.

I've stopped my dreaming,

I won't do too much scheming

These days, these days.

These days I sit on corner stones

And count the time in quarter tones to ten.

Please don't confront me with my failures,

I had not forgotten them.

Added by tabs-database.com and our distinguished partners

Get this song at:  amazon.com sheetmusicplus.com

Share your thoughts

0 Comments found