Nickel Creek

Nickel Creek - This Side (mandolin ) guitar chord

E C#m A Bsus cm Ab

E---0----0-------0----------0------0------0----

A---7----4-------0----------2------3------3----

D---6----2-------7----------4------1------1----

G---4----6-------9----------4------0------1----

Intro:

E|0-------0-------|0-------0-------|0-------0-------|0-------0---

A|----2-------2---|----2-------2---|----0-------0---|----0-----0-

D|----------------|----------------|----------------|------------

G|----------------|----------------|----------------|------------

E|0-------0-------|0-------0-------|0-------0------0-------------

A|----------------|----------------|-----------------0---2-4-5-6-

D|---6--------6---|----6-------6---|----4------6-----------------

G|----------------|----------------|-----------------------------

E|0-----0-------|2-----2-4-0----0-|0-----0-----0-|0-----0--------

A----2-----2---|----2--------6--------0-----0---|---4-6---6-4-2-0

D|----------------|----------------|------------------|----------

G|----------------|----------------|------------------|----------

E|-------0-------|2----+2-4-0---0-|(0)-0----0-----0-|0-----0-----

A|----2-------2---|--2--------6---|------0-----0---|---4-6--6-4-0

D|6---------------|----------------|------------------|----------

G|----------------|----------------|------------------|----------

E--------

A-4---6--

D--------

G--------

E c#m A Bsus

One day you'll see her and you'll know what I mean.

E c#m A Bsus cm

Take her of leave her she will still be the same.

c#m ab a Bsus

She'll not try to buy you with her time.

E c#m A Bsus

But nothing's the same, as you will see when she's gone.

Bsus

It's foreign on this side,

c#m a Bsus

And I'll not leave my home again.

c#m

There's no place to hide

A Bsus

And I'm nothing but scared.

E c#m A Bsus

You dream of colors that have never been made,

E c#m A Bsus

You imagine songs that have never been played.

c#m ab a Bsus

They will try to buy you and your mind.

E c#m A Bsus

Only the curious have something to find.

Bsus

It's foreign on this side,

c#m A Bsus

And the truth is a bitter friend.

c#m A Bsus

But reasons few have I to go back again

! (means not to play anythin)

!Your first dawn blinded you, left you cursing the day.!

!Entrance is crucial and it's not without pain.!

C#m Ab A Bsus

There's no path to follow, once you're here.

E c#m A bsus

You'll climb up the slide and then you'll slide down the stairs.

Bsus

It's foreign on this side,

c#m A bsus

But it feels like I'm home again.

c#m A

There's no place to hide

Bsus

But I don't think I'm scared.

c#m A Bsus

(there's no place to hide but i dont think i'm scared)

c#m A

there's no place to hide

Bsus

But I don't think I'm scared (intro)

Get this song at:  amazon.com sheetmusicplus.com

Share your thoughts

0 Comments found