Nickel Creek

Nickel Creek - The Fox (mandolin) solo guitar tab

Artist: Nickel Creek

Song: The Fox

Album: Nickel Creek

Tabbed By: PJ White

This is the mandolin solo that Chris Thile plays.

E|----------------|----------------|------------0-0-|----0-2-0-------|

A|--------0-2-4-5-|----0---0-------|--------0-------|4-7-------4-2-4-|

D|----2-4---------|4-7---7---7-0-5-|4-0-2-6---------|----------------|

G|----------------|----------------|----------------|----------------|

1e&a2e&a3e&a4e&a 1e&a2e&a3e&a4e&a 1e&a2e&a3e&a4e&a 1e&a2e&a3e&a4e&a

| 3 |

E|--------------0-|----0-0-----------|--------2-0---0-|------0-------0-|

A|5-2-4-0-2-0-0---|2-4-----4-2-0-2-4-|5---0-5-----5---|2-4-0---2-0-----|

D|----------------|------------------|--0-------------|------------6---|

G|----------------|------------------|----------------|----------------|

1e&a2e&a3e&a4e&a 1e&a2e&a3 4e&a 1e&a2e&a3e&a4e&a 1e&a2e&a3e&a4e&a

E|--0-----0-----0-|----------------|------------0-3-|2-----5-----2---|

A|0-----0-----0---|2-0-----------2-|4---0-2-4-5-----|----0-----0-----|

D|----7-----7-----|----6-2-0-2-6---|--5-------------|--0-----0-----0-|

G|----------------|----------------|----------------|----------------|

1e&a2e&a3e&a4e&a 1e&a2e&a3e&a4e&a 1e&a2e&a3e&a4e&a 1e&a2e&a3e&a4e&a

E|0---------0---0-|--0---0---0-----|--0-------------|----------------|

A|--5-4-2-0---0---|2---5---4---2---|0-------0-------|----------------|

D|----------------|--------------6-|----2-4---4-2---|----------------|

G|----------------|----------------|--------------6-|2---------------|

1e&a2e&a3e&a4e&a 1e&a2e&a3e&a4e&a 1e&a2e&a3e&a4e&a 1e&a2e&a3e&a4e&a

Get this song at:  amazon.com sheetmusicplus.com

Share your thoughts

0 Comments found