Nickel Creek

Nickel Creek - Lighthouse Tale (correct Mandolin ) guitar tab

here is it i listen to the song and slowed it down and

matched the notes and i'm pretty sure its 100% correct

comment me on it !!! =D enjoy

E-----0-2-0----------0-2-0----------0-2-0----------

A-0-5-------5-2--0-5-------5-2--0-5-------5-0------

D--------------------------------------------------

G--------------------------------------------------

-----------------------0-2-0----------0-2-0----------0-2-0-

-7--10-9-5-7-9-----0-5-------5-2--0-5-------5-2--0-5-------

-----------------------------------------------------------

-----------------------------------------------------------

------5-2-0----------------------------

-5-0--------5--------------------------

---------------0-----------------------

---------------------------------------

Get this song at:  amazon.com sheetmusicplus.com

Share your thoughts

0 Comments found