Nerf Herder

Nerf Herder - Vivian guitar tab

-------------------------------------------------------------------------------

VIVIAN - Nerf Herder

-------------------------------------------------------------------------------

By: victrola@gurlmail.com, victrola70@aol.com

this is pretty close

INTRO/OUTRO (repeat over and over and over and over.....)

e|--5------|

B|-----5---|

G|---------|

D|---------|

A|---------|

E|---------|

VERSE (let ring for the first time played; palm mute during lyrics)

e|-----------------------------|

B|-----------4-----6-----2-----|

G|-----2-----4-----6-----2-----|

D|-----2-----2-----4-----0-----|

A|-----0-----------------------|

E|-----------------------------|

A E F# D

A E

'lectronic drums and synthisizers

F# D

angular haircuts and black eyeliner

A E

we'll start a new wave band and then i'll make you mine

F# D

you'll play the keyboards and everything will be alright

(bridge....i think)

A

put em on, put em on, put em on , put em on,

E

put em on , put em on , put em onnn

F#

put em on, put em on, put em on , put em on,

D

put em on , put em on , put em onnn

PRE-CHORUS

e|-----------------------------|

B|-----------------------------|

G|-----------7-----------9-----|

D|-----4-----7-----7-----9-----|

A|-----4-----5-----7-----7-----|

E|-----2-----------5-----------|

F# D A E

F# D

we'll show the soc's we'll show the jocks

A E

we'll show the heshers we can't be stopped

(break)

come on

CHORUS

e|-----------------------------------------------------|

B|-----------2-----------2-----------4-----6-----2-----|

G|-----2-----2-----2-----2-----2-----4-----6-----2-----|

D|-----2-----0-----2-----0-----2-----2-----4-----0-----|

A|-----0-----------0-----------0-----------------------|

E|-----------------------------------------------------|

A D A D A E F# D

A D A D

vivian, put your glasses on

A E

yeah yr going away to med school

F# D

and im going out of my mind

pretty easy, eh?

-------------------------------------------------------------------------------

Get this song at:  amazon.com sheetmusicplus.com

Share your thoughts

0 Comments found