Nerf Herder

Nerf Herder - Santa Has A Mulet guitar tab

-------------------------------------------------------------------------------

SANTA HAS A MULET - Nerf Herder

-------------------------------------------------------------------------------

By Johnny (ledmet_98@yahoo.com)

Intro

e-|---------------|

B-|-2-2-2-2-(0)-3-|

G-|-2-2-2-2-(0)-2-|Play

D-|-2-2-2-2-----0-|4x

A-|-0-0-0-0-------|

E-|---------------|

Verse

e-|---------------|---------|-----------------------|---------------|---------|-----------------|

B-|-2-2-2-2-(0)-3-|-2-2-2-2-|---------2-2-2-2-(0)-3-|-2-2-2-2-(0)-3-|-2-2-2-2-|---------2-2-2-2-|

G-|-2-2-2-2-(0)-2-|-2-2-2-2-|---------2-2-2-2-(0)-2-|-2-2-2-2-(0)-2-|-2-2-2-2-|---------2-2-2-2-|

D-|-2-2-2-2-----0-|-2-2-2-2-|-2-2-2-2-2-2-2-2-----0-|-2-2-2-2-----0-|-2-2-2-2-|-2-2-2-2-2-2-2-2-|

A-|-0-0-0-0-------|-0-0-0-0-|-2-2-2-2-0-0-0-0-------|-0-0-0-0-------|-0-0-0-0-|-2-2-2-2-0-0-0-0-|

E-|---------------|---------|-0-0-0-0---------------|---------------|---------|-0-0-0-0---------|

e-|-----------------|-----------------|---------------|---------|-----------------|

B-|---------2-2-2-2-|---------2-2-2-2-|-2-2-2-2-(0)-3-|-2-2-2-2-|---------2-2-2-2-|

G-|---------2-2-2-2-|---------2-2-2-2-|-2-2-2-2-(0)-2-|-2-2-2-2-|---------2-2-2-2-|Play

D-|-2-2-2-2-2-2-2-2-|-2-2-2-2-2-2-2-2-|-2-2-2-2-----0-|-2-2-2-2-|-2-2-2-2-2-2-2-2-|2x

A-|-2-2-2-2-0-0-0-0-|-2-2-2-2-0-0-0-0-|-0-0-0-0-------|-0-0-0-0-|-2-2-2-2-0-0-0-0-|

E-|-0-0-0-0---------|-0-0-0-0---------|---------------|---------|-0-0-0-0---------|

Bridge

e-|---|---|---|---|---|---|---|---|---|---|------|---|

B-|---|---|---|---|---|---|---|---|---|-2-|---10-|-2-|

G-|-6-|-2-|---|---|-6-|-2-|---|---|---|-2-|-9----|-2-|

D-|-4-|-0-|-2-|---|-4-|-0-|-2-|---|---|-2-|-7----|-2-|

A-|---|---|-0-|-2-|---|---|-0-|-2-|-2-|-0-|------|-0-|

E-|---|---|---|-0-|---|---|---|-0-|-0-|---|------|---|

Verse

e-|---------------|---------|-----------------------|---------------|---------|-----------------|

B-|-2-2-2-2-(0)-3-|-2-2-2-2-|---------2-2-2-2-(0)-3-|-2-2-2-2-(0)-3-|-2-2-2-2-|---------2-2-2-2-|

G-|-2-2-2-2-(0)-2-|-2-2-2-2-|---------2-2-2-2-(0)-2-|-2-2-2-2-(0)-2-|-2-2-2-2-|---------2-2-2-2-|

D-|-2-2-2-2-----0-|-2-2-2-2-|-2-2-2-2-2-2-2-2-----0-|-2-2-2-2-----0-|-2-2-2-2-|-2-2-2-2-2-2-2-2-|

A-|-0-0-0-0-------|-0-0-0-0-|-2-2-2-2-0-0-0-0-------|-0-0-0-0-------|-0-0-0-0-|-2-2-2-2-0-0-0-0-|

E-|---------------|---------|-0-0-0-0---------------|---------------|---------|-0-0-0-0---------|

e-|-----------------|-----------------|---------------|---------|---------|---------|---------|---------|---|

B-|---------2-2-2-2-|---------2-2-2-2-|-2-2-2-2-(0)-3-|-2-2-2-2-|---------|---------|---------|---------|-2-|

G-|---------2-2-2-2-|---------2-2-2-2-|-2-2-2-2-(0)-2-|-2-2-2-2-|---------|---------|---------|---------|-2-|

D-|-2-2-2-2-2-2-2-2-|-2-2-2-2-2-2-2-2-|-2-2-2-2-----0-|-2-2-2-2-|-2-2-2-2-|-2-2-2-2-|-2-2-2-2-|-2-2-2-2-|-2-|

A-|-2-2-2-2-0-0-0-0-|-2-2-2-2-0-0-0-0-|-0-0-0-0-------|-0-0-0-0-|-2-2-2-2-|-2-2-2-2-|-2-2-2-2-|-2-2-2-2-|-0-|

E-|-0-0-0-0---------|-0-0-0-0---------|---------------|---------|-0-0-0-0-|-0-0-0-0-|-0-0-0-0-|-0-0-0-0-|---|

-------------------------------------------------------------------------------

Get this song at:  amazon.com sheetmusicplus.com

Share your thoughts

0 Comments found