Nerf Herder

Nerf Herder - Popular guitar tab

-------------------------------------------------------------------------------

POPULAR - Nerf Herder

-------------------------------------------------------------------------------

Tabbed by: Michael Humphreys

RIFF 1

e|-------------------------------------:|

B|-------------------------------------:|

G|-------4--------4--------4---------4-:|

D|-------------------------------------:|

A|-3--3-----3--3-----2--2--------------:|

E|----------------------------0---0----:|

RIFF 2

e|--------------------------------------|

B|--------------------------------------|

G|-----2-------3-------4-------4--------|

D|---4---4---4---4---4---4---4---4------|

A|-3-------3-------2-------2------------|

E|--------------------------------------|

CHORUS CHORDS:

A5 G5

e|-----------

B|-----------

G|-----------

D|-7----5----

A|-7----5----

E|-5----3----

on the third line of each chorus play this simple riff:

RIFF 3

e|-7-5-5--------5-3-3-------------------|

B|--------------------------------------|

G|--------------------------------------|

D|--------------------------------------|

A|--------------------------------------|

E|--------------------------------------|

End the song on an A. Really simple song to play, just listen to the CD a few

times and It will all become clear.

-------------------------------------------------------------------------------

Get this song at:  amazon.com sheetmusicplus.com

Share your thoughts

0 Comments found