Nerf Herder

Nerf Herder - Pantara Fans In Love guitar tab

SONG:pantara fans in love

BAND:NERF HERDER

ALBUM:HOW TO MEET GIRLS

TABBER: ME (kammansk8@hotmail.com)

Intro:

|5-3---5-3---5-3-2-3--2-3-5-3---5-3---5-3-2-3--2-0-2-3-

|----3-----3------------------3-----3------------------

|------------------------------------------------------

|------------------------------------------------------

|------------------------------------------------------

|------------------------------------------------------

IN MIDDLE OF VERSE JUST HIT A G5 AND LET IT RING OUT

main riff:(during intro and verse "we went to sears...")

|----------------|----------------|----------------|----------------

|----------------|----------------|----------------|----------------

|----------------|7-7-7-7-7-7-7-7-|9-9-9-9-9-9-9-9-|----------------

|5-5-5-5-5-5-5-5-|7-7-7-7-7-7-7-7-|9-9-9-9-9-9-9-9-|5-5-5-5-5-5-5-5-

|5-5-5-5-5-5-5-5-|5-5-5-5-5-5-5-5-|7-7-7-7-7-7-7-7-|5-5-5-5-5-5-5-5-

|3-3-3-3-3-3-3-3-|----------------|----------------|3-3-3-3-3-3-3-3-

G5 D5 E5 G5

|----------------|----------------|----------------|----------------

|----------------|----------------|----------------|----------------

|5-5-5-5-5-5-5-5-|----------------|----------------|7-7-7-7-7-7-7-7-

|5-5-5-5-5-5-5-5-|5-5-5-5-5-5-5-5-|7-7-7-7-7-7-7-7-|7-7-7-7-7-7-7-7-

|3-3-3-3-3-3-3-3-|5-5-5-5-5-5-5-5-|7-7-7-7-7-7-7-7-|5-5-5-5-5-5-5-5-

|----------------|3-3-3-3-3-3-3-3-|5-5-5-5-5-5-5-5-|----------------

C5 G5 A5 D5

chorus:("i'll bring the wine, you bring the bread and cheese...")

|----------------|----------------|----------------|----------------

|----------------|----------------|----------------|----------------

|5~--------------|7~--------------|----------------|----------------

|5~--------------|7~--------------|5-------4-------|2~--------------

|3~--------------|5~--------------|5-------4-------|2~--------------

|----------------|----------------|3-------2-------|0~--------------

C5 D5 G5 F#5 Em

on the 4th time, just do play the C5 and D5

ending:("we are, matalica fans we are...")

just do the C5 and D5 from the chorus over and over.

Get this song at:  amazon.com sheetmusicplus.com

Share your thoughts

0 Comments found