Nerf Herder

Nerf Herder - Nose Ring Girl guitar tab

-------------------------------------------------------------------------------

NOSE RING GIRL - Nerf Herder

-------------------------------------------------------------------------------

By: k1b0wl3r@hotmail.com

Beggining

E|--------------------------------------------------------------|

B|--------------------------------------------------------------|

G|--------------------------------------------------------------|

D|----------------------8-8-8-8-8-8-7-7-7-5-5-5-7-5-3-9>7-------|

A|5>3-5>7-7-5-3-------------------------------------------------|

E|--------------------------------------------------------------|

Chorus End of chorus

E|----------------------|---------------------------------------|

B|----------------------|---------------------------------------|

G|-----5-5--------------|---------------------------------------|

D|-5---5-5--3-3-3-3-----|---5>-3--------------------------------|

A|-5---3-3--3-3-3-3-----|---5>-3-its quiet but its thier--------|

E|-3--------1-1-1-1-----|---3>-1--------------------------------|

^

Scratch up then down the strings

last verse beggining

E|----------------------------------|---------------------------|

B|----------------------------------|---------------------------|

G|---------5---7--------------------|-----5--5------------------|

D|--5--3--5---7---------------------|-----5--5---3-3-3-3--------|

A|--5--3--3---5---------------------|-----3--3---3-3-3-3--------|

E|--3--1----------------------------|------------1-1-1-1--------|

Solo in the backround (i think)

E|---------------------------------------------------------------------------|

B|--5--5--5B-5-5-5-5-5b-5-5>2 2b>5-------------------------------------------|

G|---------------------------------------------------------------------------|

D|---------------------------------------------------------------------------|

A|---------------------------------------------------------------------------|

E|---------------------------------------------------------------------------|

===============================================================================

Get this song at:  amazon.com sheetmusicplus.com

Share your thoughts

0 Comments found