Nerf Herder

Nerf Herder - New Wave Girl guitar tab

Nerf Herder - New Wave Girl

Submitted By: Daniel Taylor

EMail: danielt88@hotmail.com

Tuning: Standard (E A D G B E)

Intro/Verse

E|-------------------------------------------||

B|-------------------------------------------||

G|-------------------------------------------||

D|---77777777---7-6-7----77777777---7-6-7----||

A|---77777777------------77777777------------||

E|---55555555------------55555555------------||

E|-------------------------------------------||

B|-------------------------------------------||

G|---------------------------------77777777--||

D|---77777777---7-6-7----99999999--77777777--||

A|---77777777------------99999999--55555555--||

E|---55555555------------77777777------------||

Chorus

E|--------------------------------------------||

B|--------------------------------------------||

G|---------------------77777777--99999999-----||

D|---7777777777777777--77777777--99999999-----||

A|---7777777777777777--55555555--77777777-----||

E|---5555555555555555-------------------------|| 3 times

E|----------------------------------------------------||

B|----------------------------------------------------||

G|---7777777777--99999999-----------------------7-----||

D|---7777777777--99999999--44444444--77777777---7-----||

A|---5555555555--77777777--44444444--77777777---5-----||

E|-------------------------22222222--55555555---------||

E|--------------||

B|--------------||

G|--999999999---||

D|--999999999---||

A|--777777777---||

E|--------------||

Bridge

E|------------------------------------------------||

B|------------------------------------------------||

G|-------6-7-6-----6-7-6--------7-9-7-----7-9-7---||

D|--7-7---------7----------7-7---------7----------||

A|------------------------------------------------||

E|------------------------------------------------||

E|------------------------------------------------||

B|------------------------------------------------||

G|-------6-7-6-----6-7-6--------4-6-4-----4-6-4---||

D|--7-7---------7----------6-6---------6----------||

A|------------------------------------------------||

E|------------------------------------------------||

Backing chords: F#5 D5 A5 G#5

Get this song at:  amazon.com sheetmusicplus.com

Share your thoughts

0 Comments found