Nerf Herder

Nerf Herder - New Jersey Girl guitar chord

#-----------------------------PLEASE NOTE-------------------------------------#

#This OLGA file is the author's own work and represents their interpretation #

#of the song. You may only use this file for private study, scholarship, or #

#research. Remember to view this file in Courier, or some other monospaced #

#font. See http://www.olga.net/faq/ for more information. #

#-----------------------------------------------------------------------------#

Subject: n/nerf_herder/new_jersey_girl.tab

New Jersey Girl

By Nerf Herder from the album American Cheese

Tabbed by Jeff Shrensel

This tab is all the author's own work.

Intro

E ------------------------------------------------|

B ------------------------------------------------|

G --------------(1)-------------------------------|

D ---7--6--4--6--2-------------------7--6--4--6--2|

A --------------------5--7--4---------------------|

E 5-----------------------------------------------|

Play the following chords with Distortion

A-D-E-D

Verse 1 & 2: (clean)

A-D-E-D

Chorus:

(heavy distortion)

A-D-E-D

Verse 3

E -------------------------------|

G -------------------------------|

B -------------------------------| 4X

D ---7--6--4--6--2---------------|

A --------------------5--7--4----|

E -------------------------------|

E ---0-------------------------|

G ---2--2-3---3---3----2----0--|

B ---2-------------------------|

D ---2-------------------------|

A -----------------------------|

E -----------------------------|

(distortion)

...no, but is your sister home?

Chorus to end

Get this song at:  amazon.com sheetmusicplus.com

Share your thoughts

0 Comments found