Nerf Herder

Nerf Herder - Love Sandwich guitar tab

-------------------------------------------------------------------------------

LOVE SANDWICH - Nerf Herder

-------------------------------------------------------------------------------

By: WBinder007@aol.com

ONLY RIFF:

e|----------------------------------------------------------------------------|

B|----------------------------------------------------------------------------|

G|-7-7-7-7--5/7-7-7--5/7-7-7--10-10-10-10--7-7-7-7--5/7-7-7--5/7-7-7----------|

D|-7-7-7-7--5/7-7-7--5/7-7-7--10-10-10-10--7-7-7-7--5/7-7-7--5/7-7-7--5-5-5-5-|

A|-5-5-5-5--3/5-5-5--3/5-5-5---8--8--8--8--5-5-5-5--3/5-5-5--3/5-5-5--5-5-5-5-|

E|--------------------------------------------------------------------3-3-3-3-|

That's it. Just repeat until end of song. I saw them last night at the House Of

Blues and this is exactly how Dave played it, so I know it's right.

-------------------------------------------------------------------------------

Get this song at:  amazon.com sheetmusicplus.com

Share your thoughts

0 Comments found