Nerf Herder

Nerf Herder - Lamer Than Lame guitar tab

Band-Nerf Herder

Song-Lamer than Lame

Album-How to meet girls

This is the first time i've tabbed something so it maybe wrong in

some parts, e-mail me at matt_green15@another.co.uk.

Standard Tuning

Intro

B , G X4

Intro Lead Riff....

e |-------------------------|

b |--5--7--5--3---3--2--0h2-|

g |-------------------------|

d |-------------------------|

a |-------------------------|

e |-------------------------|

e |-----------------------|

b |--5--7--5--3---5--7--5-|

g |-----------------------|

d |-----------------------|

a |-----------------------|

e |-----------------------|

e |-------------------------|

b |--5--7--5--3---3--2--0h2-|

g |-------------------------|

d |-------------------------|

a |-------------------------|

e |-------------------------|

e |-------------|

b |--5--7--5--3-| sustain last note

g |-------------|

d |-------------|

a |-------------|

e |-------------|

Bass Verse

g |---------------------------------------|

d |---------------------------------------|

a |---------------------------------------|

e |--7--7--7---7--7--9--3--3--3---3--3--3-| X4

When guitar comes in

e |--------------------------------------------------|

b |--------------------------------------------------|

g |--------------------------------------------------|

d |--9--9--9--9--9--9--9--9---5--5--5--5--5--5--5--5-|

a |--9--9--9--9--9--9--9--9---5--5--5--5--5--5--5--5-|

e |--7--7--7--7--7--7--7--7---3--3--3--3--3--3--3--3-| X5

Pre-Chorus

e |---------------------------------------------------|

b |---------------------------------------------------|

g |---------------------------------------------------|

d |--10-10-10-10-10-10-10-10---6--6--6--6--5--5--5--5-|

a |--10-10-10-10-10-10-10-10---6--6--6--6--5--5--5--5-|

e |--8--8--8--8--8--8--8--8----4--4--4--4--3--3--3--3-|

e |--------------------------------------------------|

b |--------------------------------------------------|

g |--------------------------------------------------|

d |--10-10-10-10-10-10-10-10-10-10-10-10-10-10-10-10-|

a |--10-10-10-10-10-10-10-10-10-10-10-10-10-10-10-10-|

e |--8--8--8--8--8--8--8--8--8--8--8--8--8--8--8--8--|

Chorus

e |--------------------------------------------------|

b |--------------------------------------------------|

g |--------------------------------------------------|

d |--7--7--7--7--7--7--9--9--10-10-10-10-10-10-10-10-|

a |--7--7--7--7--7--7--9--9--10-10-10-10-10-10-10-10-|

e |--5--5--5--5--5--5--7--7--8--8--8--8--8--8--8--8--|

e |--------------------------------------------------|

b |--------------------------------------------------|

g |--------------------------------------------------|

d |--5--5--5--5--5--5--5--5---9--9--9--9--9--9--9--9-|

a |--5--5--5--5--5--5--5--5---9--9--9--9--9--9--9--9-|

e |--3--3--3--3--3--3--3--3---7--7--7--7--7--7--7--7-| X2

e |---------------------------------------------------|

b |---------------------------------------------------|

g |---------------------------------------------------|

d |--10-10-10-10-10-10-10-10-10-10-10-10-10--9--10--9-|

a |--10-10-10-10-10-10-10-10-10-10-10-10-10--9--10--9-|

e |--8--8--8--8--8--8--8--8--8--8--8--8--8---7--8---7-|

back to modified intro

B,G X2

e |-------------------------|

b |--5--7--5--3---3--2--0h2-|

g |-------------------------|

d |-------------------------|

a |-------------------------|

e |-------------------------|

e |-----------------------|

b |--5--7--5--3---5--7--5-| sustain this note

g |-----------------------|

d |-----------------------|

a |-----------------------|

e |-----------------------|

Bass Verse X4, Guitar comes in X5, Pre-chorus X2,

Modified Chorus

e |--------------------------------------------------|

b |--------------------------------------------------|

g |--------------------------------------------------|

d |--7--7--7--7--7--7--9--9--10-10-10-10-10-10-10-10-|

a |--7--7--7--7--7--7--9--9--10-10-10-10-10-10-10-10-|

e |--5--5--5--5--5--5--7--7--8--8--8--8--8--8--8--8--|

e |--------------------------------------------------|

b |--------------------------------------------------|

g |--------------------------------------------------|

d |--5--5--5--5--5--5--5--5---9--9--9--9--9--9--9--9-|

a |--5--5--5--5--5--5--5--5---9--9--9--9--9--9--9--9-|

e |--3--3--3--3--3--3--3--3---7--7--7--7--7--7--7--7-| X2

e |--------------------------------------------------|

b |--------------------------------------------------|

g |--------------------------------------------------|

d |--10-10-10-10-10-10-10-10--5--5--5--5--5--5--5--5-|

a |--10-10-10-10-10-10-10-10--5--5--5--5--5--5--5--5-|

e |--8--8--8--8--8--8--8--8---3--3--3--3--3--3--3--3-|

e |--------------------------------------------------|

b |--------------------------------------------------|

g |--------------------------------------------------|

d |--10-10-10-10-7--7--7--7---5--5--5--5--5--5--5--5-|

a |--10-10-10-10-7--7--7--7---5--5--5--5--5--5--5--5-|

e |--8--8--8--8--5--5--5--5---3--3--3--3--3--3--3--3-|

e |--------------------------------------------------|

b |--------------------------------------------------|

g |--------------------------------------------------|

d |--10-10-10-10-10-10-10-10--5--5--5--5--5--5--5--5-|

a |--10-10-10-10-10-10-10-10--5--5--5--5--5--5--5--5-|

e |--8--8--8--8--8--8--8--8---3--3--3--3--3--3--3--3-|

e |-------------------------------------------------|

b |-------------------------------------------------|

g |-------------------------------------------------|

d |--10-10-10-10-10-10-10-10-9--9--9--9--9--9--9--9-|

a |--10-10-10-10-10-10-10-10-9--9--9--9--9--9--9--9-|

e |--8--8--8--8--8--8--8--8--7--7--7--7--7--7--7--7-|

e |--------------|

b |--------------|

g |--------------|

d |--10-10-10-10-|

a |--10-10-10-10-|

e |--8--8--8--8--| sustain

Bass Bridge

g |----------------------------------------------------|

d |----------------------------------------------------|

a |----------------------------------------------------|

e |--3--3--3--3--3--3--3--3---2--2--2--2---8--8--8--8--|

g |--------------------------------------------------|

d |--------------------------------------------------|

a |--------------------------------------------------|

e |--8--8--8--8--8--8--8--8---7--7--7--7--7--7--7--7-| X1

Guitar comes in

e |----------------------------------------------------|

b |----------------------------------------------------|

g |----------------------------------------------------|

d |--5--5--5--5--5--5--5--5---4--4--4--4---10-10-10-10-|

a |--5--5--5--5--5--5--5--5---4--4--4--4---10-10-10-10-|

e |--3--3--3--3--3--3--3--3---2--2--2--2---8--8--8--8--|

e |--------------------------------------------------|

b |--------------------------------------------------|

g |--------------------------------------------------|

d |--10-10-10-10-10-10-10-10--9--9--9--9--9--9--9--9-|

a |--10-10-10-10-10-10-10-10--9--9--9--9--9--9--9--9-|

e |--8--8--8--8--8--8--8--8---7--7--7--7--7--7--7--7-| X2

e |-------------------------------------------------|

b |-------------------------------------------------|

g |-------------------------------------------------|

d |--9--9--9--9--9--9--9--9--9--9--9--9--9--9--9--9-|

a |--9--9--9--9--9--9--9--9--9--9--9--9--9--9--9--9-|

e |--7--7--7--7--7--7--7--7--7--7--7--7--7--7--7--7-|

Drum fill, Chorus (repeat chorus riff 4 time on the last

2 play the same chords in a higher octave in the background)

---------------------------------------------------------------

Get this song at:  amazon.com sheetmusicplus.com

Share your thoughts

0 Comments found