Nerf Herder

Nerf Herder - Jacket guitar tab

-------------------------------------------------------------------------------

Jacket - Nerf Herder

-------------------------------------------------------------------------------

By: Chris Copsey (cjcopsey@bsu.edu)

*= Palm Mute

~= Hold note for a bit

Intro:

e|---------------------------------------------------------------------------|

B|---------------------------------------------------------------------------|

G|--------------------------------------4~-----------------------------------|

D|--------------------6-6-8-4-9-8-6-4---4~-----------------------------------|

A|2-6-4-2-1-2-6-4-2-1-------------------2~-----------------------------------|

E|---------------------------------------------------------------------------|

Note: The intro for guitar 2 is just the verse chords, but without the palm-muting.

Verse:

e|---------------------------------------------------------------------------|

B|---------------------------------------------------------------------------|

G|---------------------------------------------------------------------------|

D|44444444----------------------------44444444-------------------44444444----|

A|22222222-22222222-66666666-44444444-22222222-22222222-66666666-44444444----|

E|---------00000000-44444444-22222222----------00000000-44444444-22222222----|

******** ******** ******** ******** ******** ******** ********

Chorus ("All the time I spent with...")

e|---------------------------------------------------------------------------|

B|---------------------------------------------------------------------------|

G|4444444444444444-6666666666666666-44444444---------------------------------|

D|4444444444444444-6666666666666666-44444444-44444444-2222222222222222-------|

A|2222222222222222-4444444444444444-22222222-44444444-2222222222222222-------|

E|-------------------------------------------22222222-0000000000000000-------|

("Marks made by...")

e|---------------------------------------------------------------------------|

B|---------------------------------------------------------------------------|

G|44444444----------9999999999999999-----------------------------------------|

D|44444444-44444444-9999999999999999-----------------------------------------|

A|22222222-44444444-7777777777777777-----------------------------------------|

E|---------22222222----------------------------------------------------------|

("Lipstick from...") ("Ice Cream stains...")

e|---------------------------------------------------------------------------|

B|---------------------------------------------------------------------------|

G|44444444------------------------------44444444----------9999999999999999---|

D|44444444-44444444-2222222222222222----44444444-44444444-9999999999999999---|

A|22222222-44444444-2222222222222222----22222222-44444444-7777777777777777---|

E|---------22222222-0000000000000000-------------22222222--------------------|

Repeat Intro

Repeat Verse

Repeat Chorus

("Blood from when you...")

Guitar 1:

e|------------------|

B|8---11---8--11----|

G|-9~---9~--9~--9~--|

D|------------------|

A|------------------|

E|------------------|

Guitar 2:

e|------------------|

B|------------------|

G|4~----4~----------|

D|4~-2~-4~-4--------|

A|2~-2~-2~-4--------|

E|---0~----2--------|

After Doing that once: ("Coffee Spilled...")

e|---------------------------------------------------------------------------|

B|---------------------------------------------------------------------------|

G|------------------44444444-------------------------------------------------|

D|66666666-22222222-44444444-44444444444444444444----------------------------|

A|66666666-22222222-22222222-44444444444444444444----------------------------|

E|44444444-00000000----------22222222222222222222----------------------------|

Repeat Chorus

Ending: ("You used to wear it in the rain.")

e|------------------|

B|------------------|

G|4~----------------|

D|4~-4~-2~----------|

A|2~-4~-2~----------|

E|---2~-0~----------|

And that's it. Enjoy!

===============================================================================

Get this song at:  amazon.com sheetmusicplus.com

Share your thoughts

0 Comments found