Nerf Herder

Nerf Herder - Hotel California guitar tab

BAND - Nerf Herder

SONG - Hotel California

TABBER – ozwinpunk

Hi again, this is a much better version of this tab, the last one was a mess.

This is for leah, who i know likes this song.

Please note : A pigin is for life, not just for christmas.

Standard tuning EADGBE

Intro x2

E------------------------------------------------------------------------------------

B------------------------------------------------------------------------------------

G-------------------------------------55555--------------777-------------------------

D--2---------------------------22222--55555--5555555555--777-------------------------

A--2---------------------------22222--33333--5555555555--555-------------------------

E--0---------------------------00000---------3333333333------------------------------

(Ring through bass)

Verse x2

E ----------------------------------------------------------I--------------

B ----------------------------------------------------------I--------------

G --------55555------------777--------55555-----------------I---7777------

D --22222-55555-5555555555-777--22222-55555-555555555555555-I---7777-------

A --22222-33333-5555555555-555--22222-33333-555555555555555-I---5555-------

E --00000-------3333333333------00000-------333333333333333-I--------------

PM ***** ***** ********** ***** ***** ***************

Chorus 1 x3

E------------------------------I-----------------------------------------

B------------------------------I-----------------------------------------

G---------55555---------77777--I----5------------------------------------

D--22222--55555--55555--77777--I----5-------------555555555--------------

A--22222--33333--55555--55555--I----3-------------555555555--------------

E--00000---------33333---------I------------------333333333--------------

Ring…..

Chorus 2 x3

E------------------------------I------------------------------------------------------------

B------------------------------I------------------------------------------------------------

G---------55555---------77777--I--5555555---------------------------------------------------

D--22222--55555--55555--77777--I--5555555-555555555-77777777-101010101010-------2-----------

A--22222--33333--55555--55555--I--3333333-555555555-77777777-101010101010-------2-----------

E--00000---------33333---------I----------333333333-55555555-88888888-----------0-----------

Ring

(through bass)

autro

E-------------------------------------------------------------------------------------------------------

B-------------------------------------------------------------------------------------------------------

G--77777777-99999999-11111111111-14---------------------------------------------------------------------

D--77777777-99999999-1111111111-14----------------------------------------------------------------------

A--55555555-77777777-9999999----12----------------------------------------------------------------------

E-------------------------------------------------------------------------------------------------------

End with chorus twice, then play…

E------------------------------------------------------------------------------------

B------------------------------------------------------------------------------------

G---5-----------5-5-------------------------------------------------------------

D---5-----------5-5--------------555555555--------------------------------------

A---3-----------3-3--------------555555555--------------------------------------

E--------------------------------333333333--------------------------------------

Ring…. Ring….

Ok, so all the parts are there and I think in pretty much the right order, it’s a really

simple song and fun to play around with. Listen to the song for the strumming pattern,

its mostly down strokes. Enjoy.

Get this song at:  amazon.com sheetmusicplus.com

Share your thoughts

0 Comments found