Nerf Herder

Nerf Herder - Don Hate Me guitar tab

Artist : Nerf Herder

Album : Baseketball Soundtrack

Song : Don't Hat Me

Transcribed by : HavenKing [kracker_b828@hotmail.com]

Tuning : Standard

I love this song!!! It rocks and so does NERF HERDER!!!! This is

mostly all of what they play in the song. Just listen to the song

to get the order,it's not that hard.Send typo's and errors/corrections

Please!!!!!

~ - Let It Ring

* - Palm Mute

[Intro]

------------------------------------------------------------------------------------

------------------------------------------------------------------------------------

------------------------------------------------------------------------------------

-------7~----------5~----4~------------7~----------2~-------------------------------

-7~----5~----5~----3~----2~------5~----5~----------2~-------------------------------

-5~----------3~------------------7~----------------0~-------------------------------

[Verse]

------------------------------------------------------------------------------------

------------------------------------------------------------------------------------

------------------------------------------------------------------------------------

----------------------7777777777777777---------------------------5555555555555555---

-7777777777777777-----5555555555555555------5555555555555555-----3333333333333333---

-5555555555555555---------------------------3333333333333333------------------------

**************** **************** **************** ****************

------------------------------------------------------------------------------------

------------------------------------------------------------------------------------

------------------------------------------------------------------------------------

-4444444444444444-----------------------------------7777777777777777-------------2~-

-2222222222222222-------7777777777777777------------5555555555555555-------------2~-

------------------------5555555555555555-----------------------------------------0~-

**************** **************** ****************

[Chorus]

------------------------------------------------------------------------------------

------------------------------------------------------------------------------------

------------------------------------------------------------------------------------

----------------------5555555555555555----------------------------------------------

-3333333333333333-----3333333333333333-------5555555555555555----5555555555555555---

-1111111111111111----------------------------7777777777777777----3333333333333333---

Get this song at:  amazon.com sheetmusicplus.com

Share your thoughts

0 Comments found