Nerf Herder

Nerf Herder - Doin' Laundry guitar tab

-------------------------------------------------------------------------------

DOIN’ LAUNDRY - Nerf Herder

-------------------------------------------------------------------------------

By: Dave Mic

Chords:

G A E D C C#

e--------------------------|

b--------------------------|

g----------9---7---5---4---|

d--5---7---9---7---5---4---|

a--5---7---7---5---3---2---|

E--3---5-------------------|

Intro:

G G G

Knee high! Argyle! Two!

G A G

I was thinking of you when I jerked off into my sock last night

G A G

I was thinking of you when I jerked off into my sock

E A C C#

I was thinking of you I think I had more than two I didn’t have anything else to do

G A

I was thinking of you when I jerked off into my sock

-------------------------------------------------------------------------------

Get this song at:  amazon.com sheetmusicplus.com

Share your thoughts

0 Comments found