Nerf Herder

Nerf Herder - Defending The Faith guitar tab

Nerf Herder - Defending The Faith

Submitted By: Daniel Taylor

EMail: danielt88@hotmail.com

Standard Tuning (e B G D A E)

Intro Riff

e|--------------------------------------------------------||

B|---------------------------------------555555-----------||

G|--2222222222--4-55---2222222222--4-55----------555555---||

D|--------------------------------------------------------||

A|--------------------------------------------------------||

E|--------------------------------------------------------||

e|-------------------||

B|-------------------||

G|--777777--444444---||

D|-------------------||

A|-------------------||

E|-------------------||

e|----------------------------------------------------------||

B|---------------------------------------555555--888888--9--||

G|--2222222222--4-55---2222222222--4-55---------------------||

D|----------------------------------------------------------||

A|----------------------------------------------------------||

E|----------------------------------------------------------||

Verses Palm Muted

e|--------------------||

B|--------------------||

G|-----------5--------||

D|--7----3---5----5---||

A|--7----3---3----5---||

E|--5----1--------3---||

Chorus

e|------------------------------------------------||

B|------------------------------------------------||

G|---55555555-------------------------------------||

D|---55555555--55555555--3333----3333-----7---5---||

A|---33333333--55555555--3333----3333-----7---5---||

E|-------------33333333--1111----1111-----5---3---||

Outro

e|-----------------------------------------------------------||

B|-----------------------------------------------------------||

G|---5555-----5555-------------------------------------------||

D|---5555-----5555------5555------5555------3333------3333---||

A|---3333-----3333------5555------5555------3333------3333---||

E|----------------------3333------3333------1111------1111---||

e|-------------------------||

B|-------------------------||

G|-----------------5555----||

D|---7-----5-------5555----||

A|---7-----5-------3333----||

E|---5-----3---------------||

There you go, simple as that.

Get this song at:  amazon.com

Share your thoughts

0 Comments found