Nerf Herder

Nerf Herder - Courtney guitar tab

Song: Courtney

Band: Nerf Herder

Tabbed By: DgNr8

Intro/Verse:

e-|--------------------------------------------------------------|

B-|--------------------------------------------------------------|

G-|*-------5-5-5-5-5-5-5----------------------------------------*|

D-|---5-3--5-5-5-5-5-5-5--5-5-5-5-5-5-5--7-7-7-7-7-7-7-7-7-7-7---|

A-|*--5-3--3-3-3-3-3-3-3--5-5-5-5-5-5-5--7-7-7-7-7-7-7-7-7-7-7--*|

E-|---3-1-----------------3-3-3-3-3-3-3--5-5-5-5-5-5-5-5-5-5-5---|

e-|--------------------------------------------------------------|

B-|--------------------------------------------------------------|

G-|*-------5-5-5-5-5-5-5----------------------------------------*|

D-|---5-3--5-5-5-5-5-5-5--5-5-5-5-5-5-5--7-7-7-7-7-7-7-7-7-7-7---|

A-|*--5-3--3-3-3-3-3-3-3--5-5-5-5-5-5-5--7-7-7-7-7-7-7-7-7-7-7--*|

E-|---3-1-----------------3-3-3-3-3-3-3--5-5-5-5-5-5-5-5-5-5-5---|

pm|__________________________________________________|

Pre-Chorus:

e-|--------|

B-|--------|

G-|-5------|

D-|-5--5---|

A-|-3--5---|

E-|----3---|

Chorus:

e-|-------------------------------|

B-|-------------------------------|

G-|*--5--4----------------4--5~--*|

D-|---5--4--7--5~---5--7--4--5~---|

A-|*--3--2--7--5~---5--7--2--3~--*|

E-|---------5--3~---3--5----------|

Get this song at:  amazon.com sheetmusicplus.com

Share your thoughts

0 Comments found