Nerf Herder

Nerf Herder - Chewbacca guitar tab

Nerf Herder

Chewbacca-from "the Clerks"

---------------------------

---------------------------

--3-3235-32-32------------- intro

---------------43----------

---------------------------

---------------------------

---------------------------

----------------------------

----------------------------

--4--3--5-------------------

--4--3--5-------------------

--2--1--3-------------------

----------------------------

----------------------------

----------------------------

--4--3--5--4*--4------------ end

--4--3--5--4*--4------------

--2--1--3--2*--2------------

*- repeat, listen to song to fiure out how many times, same goes for the middle part, which

stops once or twice to play same notes but only one at a time instead of repition.

Get this song at:  amazon.com sheetmusicplus.com

Share your thoughts

0 Comments found