Nerf Herder

Nerf Herder - Cashmere guitar tab

Nerf Herder - Cashmere

Submitted By: Daniel Taylor

EMail: danielt88@hotmail.com

Intro

e|---------||

B|---------||

G|---------||

D|---7-7---||

A|---7-7---||

E|---5-5---||

Verse (palm muted)

e|------------------------------------||

B|------------------------------------||

G|-----------9------5-------7---9-----||

D|----7------9------5-------7---9-----||

A|----7------7------3-------5---7-----||

E|----5-------------------------------||

Pre-chorus

e|------------------------------------||

B|------------------------------------||

G|-------------------7-----5----------||

D|----3-------7------7-----5----5-----||

A|----3-------7------5-----3----5-----||

E|----1-------5-----------------3-----||

Chorus is same as verse without PM

Solo bit

e|---8-7-8--5----------------8-7-8-5--10----8-----||

B|----------------9-8-9-8----------------10---9---||

G|------------------------9-----------------------||

D|------------------------------------------------||

A|------------------------------------------------||

E|------------------------------------------------||

Bridge is same as verse

Get this song at:  amazon.com sheetmusicplus.com

Share your thoughts

0 Comments found