Nerf Herder

Nerf Herder - Buffy Theme Tune guitar tab

e-------------------------------------------------------|

B-------------------------------------------------------|

G-9--11--12--7--7-7-9-11-7------------------------------|

D-9--11--12--7--7-7-9-11-7----------PICK SLIDE----------|

A-7--9---10--5--5-5-7-9--5------------------------------|

E-------------------------------------------------------|

Kick In Full Distortion With Drums And Bass

e-------------------------------------------------------|

B-------------------------------------------------------|

G-9----11-12--7-----9-11--7-----------------------------|

D-9-X6-11-12--7-X14-9-11--7-X8--------------------------|

A-7----9--10--5-----7-9---5-----------------------------|

E-------------------------------------------------------|

Interlude

e-----------------7-7-7-7-7-7-10-12-7-7-7-7-7-7-10-12---|

B-10-12-10-8-87----------------------------------------|

G-------------------------------------------------------|

D-------------------------------------------------------|

A-------------------------------------------------------|

E-------------------------------------------------------|

e-5-5-5-5-5-5-7-10--5-5-5-5-5-5-5-5-6-6-6-6-6-6-6-6-----|

B-------------------------------------------------------|

G-------------------------------------------------------|

D-------------------------------------------------------|

A-------------------------------------------------------|

E-------------------------------------------------------|

Outro

e-------------------------------------------------------|

B-------------------------------------------------------|

G-9---9---9---------------------------------------------|

D-9---9---9---------------------------------------------|

A-7---7---7---------------------------------------------|

E-------------------------------------------------------

I Think That This One Sounds Better Than the Other One Here,

Get this song at:  amazon.com sheetmusicplus.com

Share your thoughts

0 Comments found