Nerf Herder

Nerf Herder - Buffy Theme bass tab

Date: Tue, 30 Dec 2003 11:01:24 -0500

From: jgrayky@bellsouth.net

Subject: n/nerf_herder/buffy_theme.btab

artist: Nerf Herder

title: Theme from Buffy the Vampire Slayer

tabbed by: too_for_1

Tuning: standard EADG

Key: G major

Time: 4/4 (two spaces is a 16th note)

Tempo: intro is 4th = 84, rest of song is 4th = 100

***

Intro

G|--------------------------------|--------------------------------|

D|2---------------------4-----5---|--------------------------------|

A|--------------------------------|5-------------------------------|

E|--------------------------------|--------------------------------|

Riff 1

G|--------------------------------|--------------------------------|

D|--------------------------------|--------------------------------|

A|--------------------------------|--------------------------------|

E|0---0---0---0---0---0---0---0-0-|3---3---3---3---3---3---3---3-3-|

G---------------------------------|--------------------------------|

D---------------------------------|--------------------------------|

A-2---2---2---2---2---2---2---2-2-|5---5---5---5-5-5---5---5---5---|

E---------------------------------|--------------------------------|

Riff 2 (same as riff 1, but in 16th notes)

G|--------------------------------|--------------------------------|

D|--------------------------------|--------------------------------|

A|--------------------------------|--------------------------------|

E|0-0-0-0-0-0-0-0-0-0-0-0-0-0-0-0-|3-3-3-3-3-3-3-3-3-3-3-3-3-3-3-3-|

G---------------------------------|--------------------------------|

D---------------------------------|--------------------------------|

A-2-2-2-2-2-2-2-2-2-2-2-2-2-2-2-2-|5-5-5-5-5-5-5-5-5-5-5-5-5-5-5-5-|

E---------------------------------|--------------------------------|

Middle Section (you'll probably have to listen to a recording

a few times to get his right)

G|--------------------------------|--------------------------------|

D|----------------7-5---5---7-5---|--------------------------------|

A|0-----------0-------7-----------|----------------5-7-------7-5---|

E|--------------------------------|0-----------0-------------------|

G---------------------------------|

D---------------------------------|

A---------------------------------|

E-7-----------7-7---7-7-7-7-7-7-7-|

Riff 2 again

Finale

G|--------------------------------|--------------------------------|

D|--------------------------------|--------------------------------|

A|6-6-6-6-6-6-6-6-6-6-6-6-6-6-6-6-|7---------------7---------------|

E|--------------------------------|--------------------------------|

G---------------------------------|

D---------------------------------|

A---------------------------------|

E-0-------------------------------|

***

Changes or suggestions? Contact me at jgrayky@bellsouth.net

*This tab was all my own work*

Get this song at:  amazon.com sheetmusicplus.com

Share your thoughts

0 Comments found