Nerf Herder

Nerf Herder - Buffy The Vampire Slayer Theme Tune guitar tab

intro: (clean)

e|------------------|

B|------------------|

D|--9----11-12---7--|

G|--9----11-12---7--|

A|--7----9--10---5--|

E|------------------|

(lots of distortion)

e|--------------------------------|

B|--------------------------------|

D|--9---11-12---7--7---11-12---7--|

G|--9---11-12---7--7---11-12---7--|

A|--7---9--10---5--5---9--10---5--|

E|--------------------------------|

e|---------------------------------------------|

B|---------------------------------------------|

D|--9--------11-12---7---------11-12---7-------|

G|--9(x16)---11-12---7(x32)----11-12---7(x16)--|

A|--7--------9--10---5---------9--10---5-------|

E|---------------------------------------------|

e|--5--7-5-3--3-2---7777777777-10-12-7777777777-10-12-5555555555-7-10-555555555555555666666666666666-----------|

B|----------------------------------------------------------------------------------------------------------------------------|

D|--------------------------------------------------------------------------------------------------------------------9--9--9-|

G|--------------------------------------------------------------------------------------------------------------------9--9--9-| (fade out)

A|--------------------------------------------------------------------------------------------------------------------7--7--7-|

E|----------------------------------------------------------------------------------------------------------------------------|

I think this is right. Please rate it...and have fun... Buffy rules!!!

Get this song at:  amazon.com sheetmusicplus.com

Share your thoughts

0 Comments found