Nerf Herder

Nerf Herder - Buffy The Vampire Slayer Solo guitar tab

Author/Artist: Nerf Herder

Title: Buffy The Vampire Slayer Theme

Transcribed by: Dan

Email: jimmypop696969@aol.com

they're all wrong, an ma band played dis 2day, so its right

------------------------------------------------------------------------------|

------------------------------------------------------------------------------|

------------------------------------------------------------------------------|

-------------4-5--------------4-----------------------------------------------|

-7---------------5----------7---5---------------------------------------------|

------------------------------------------------------------------------------|

------------------------------------------------------------------------------|

------------------------------------------------------------------------------|

------------------------------------------------------------------------------|

------------4455--------------44----------------------------------------------|

-77777777777----55555555555577--555555555555----------------------------------|

------------------------------------------------------------------------------|

------------------------------------------------------------------------------|

------------------------------------------------------------------------------|

------------------------------------------------------------------------------|

-7-----------7-9-7--5---------4-----------------------------------------------|

------------------------------------------------------------------------------|

------------------------------------------------------------------------------|

-777777777777-10-12-777777777777-10-12-555555555555-8-12----------------------|

------------------------------------------------------------------------------|

------------------------------------------------------------------------------|

------------------------------------------------------------------------------|

------------------------------------------------------------------------------|

------------------------------------------------------------------------------|

-555555555555666666666666-7-7-0---------------------------------------------|

--------------------------------0---------------------------------------------|

--------------------------------0---------------------------------------------|

--------------------------------2---------------------------------------------|

--------------------------------2---------------------------------------------|

--------------------------------0---------------------------------------------|

Get this song at:  amazon.com sheetmusicplus.com

Share your thoughts

0 Comments found