Nerf Herder

Nerf Herder - Buffy The Vampire Slayer Original Theme bass tab

Buffy the Vampire Slayer Original Theme

Nerf Herder

Tabbed by Carrot Dreads (mollykins13@hotmail.com)

For those of us who hate to have to detune the bass everytime we want to do a

different song, heres Buffy in standard tuning. It's pretty easy and sounds

fine so it may not be 100% right, but its close to 98.4562% right.

Have fun not having to detune your bass

xxx

h= hammer

E-0-0-0-0-0-0-0-0-3-3-3-3-3-3-3-3---------------------------------

A---------------------------------2-2-2-2-2-2-2-2-5-5-5-5-5-5-5-5-

D-----------------------------------------------------------------

G-----------------------------------------------------------------

E-0-0-0-0-0-0-0-0-3-3-3-3-3-3-3-3---------------------------------

A---------------------------------2-2-2-2-2-2-2-2-5-5-5-5-5-5-5-5-

D-----------------------------------------------------------------

G-----------------------------------------------------------------

E-5-------------

A-----7-----7---

D---5----5----5-

G---------------

E-0---------------7-3-2-0

A----5h 7---7h--5--------

D---------5--------------

G------------------------

If that�s too difficult these are the root notes and sound almost as good.

{E----0-----}

{A-0-----2--}

{D----------}

{G----------}

E-0-0-0-0-0-0-0-0-3-3-3-3-3-3-3-3-------------------------------------------------0�0�0

A---------------------------------2-2-2-2-2-2-2-2-5-5-5-5-5-5-5-5-6-6-6-6-6-6-6-6-7�7�7

D--------------------------------------------------------------------------------------

G--------------------------------------------------------------------------------------

Get this song at:  amazon.com sheetmusicplus.com

Share your thoughts

0 Comments found