Nerf Herder

Nerf Herder - Boner guitar tab

-------------------------------------------------------------------------------

NERF HERDER - I've Got a Boner for Christmas

-------------------------------------------------------------------------------

Tabbed by:

Jeremy Meyer

meyer83@yahoo.com

e|---------------------------------------------------------------------------|

B|---------------------------------------------------------------------------|

G|-------------------6-------------------------------------6-----------------|

D|---4---------------6-------------6-----------------------6-----------------|

A|---6---------------4-------------6-----------------------4-----------------|

E|---4-----------------------------4-----------------------------------------|

Mend up your stucking hole, cause this lump ain't made of coal

e|---------------------------------------------------------------------------|

B|---------------------------------------------------------------------------|

G|---88-8888------66-6666----------------------------------------------------|

D|---88-8888------66-6666------666666666666----------------------------------|

A|---66-6666------44-4444------666666666666----------------------------------|

E|-----------------------------444444444444----------------------------------|

I've gotta a....

Chorus:

e|---------------------------------------------------------------------------|

B|---------------------------------------------------------------------------|

G|----66-6666-------------66-6666-------------66-6666--88-8888888------------|

D|----66-6666---66-6666---66-6666--66-6666----66-6666--88-8888888------------|

A|----44-4444---66-6666---44-4444--66-6666----44-4444--66-6666666------------|

E|--------------44-4444------------44-4444-----------------------------------|

Singing...

e|--------------------------------------------------------------------------|

B|--------------------------------------------------------------------------|

G|---66-66666666------------------------------------------------------------|

D|---66-66666666------------------------------------------------------------|

A|---44-44444444------------------------------------------------------------|

E|--------------------------------------------------------------------------|

Solo (play 2X)

e|---------------------------------------------------------------------------|

B|------9--8-9-8------9--8-9-8-------9-8-11--13-14-13-11-9-------------------|

G|--10------------10--------------10-----------------------------------------|

D|---------------------------------------------------------------------------|

A|---------------------------------------------------------------------------|

E|---------------------------------------------------------------------------|

Go!

e|--9-8-6--------------------------------------------------------------------|

B|---------9--8-9-11-13~---14-13~--------------------------------------------|

G|---------------------------------------------------------------------------|

D|---------------------------------------------------------------------------|

A|---------------------------------------------------------------------------|

E|---------------------------------------------------------------------------|

Ending

e|---------------------------------------------------------------------------|

B|---------------------------------------------------------------------------|

G|-------88-8888888----66-66666666-------------------------------------------|

D|-------88-8888888----66-66666666----6--------------------------------------|

A|-------66-6666666----44-44444444----6--------------------------------------|

E|------------------------------------4--------------------------------------|

(hold)

Please email comments to meyer83@yahoo.com

Get this song at:  amazon.com sheetmusicplus.com

Share your thoughts

0 Comments found