Nerf Herder

Nerf Herder - Anna Lee guitar tab

-------------------------------------------------------------------------------

ANNA LEE - Nerf Herder

-------------------------------------------------------------------------------

By: Stumpy Pete (stumpymatt@yahoo.com)

Intro x4

e|---------------------------------------------------------------------|

B|---------------------------------------------------------------------|

G|-----------------------5-5-----5-5---------------------5-5-----5-5---|

D|-------5-5-----5-5---------------------7-7-----7-7-------------------|

A|-------------------3-3-----3-3---------------------3-3-----3-3-------|

E|---3-3-----3-3---------------------5-5-----5-5-----------------------|

It's these four through the whole thing. Just mute the

first two of each verse.

Sorry I didn't tab the Rythem.

e|---------------------------------------------------------|

B|---------------------------------------------------------|

G|--------------------------5----------------------5-------|

D|---5----------------------5--------------7-------5-------|

A|---5----------------------3--------------7-------3-------|

E|---3-------------------------------------5---------------|

G C A C

Wind flash pants and her street walker shoes...

Walking downtown with a pocket full of booze...

Yeah she's the one you want so much...

Yeah she's the one you can't, you can't never touch

Chorus

Here comes Anna Lee

Anna Lee yeah

Here comes anna Lee

Walking downtown you see her cutting a deal...

Windows rolled down you can't believe she's for real...

She's the one it ain't no joke...

She's got lips, yeah lips, just like cherry coke

Chorus x2

End on G.

-------------------------------------------------------------------------------

Get this song at:  amazon.com sheetmusicplus.com

Share your thoughts

0 Comments found