Nemisis

Nemisis - 7-11 guitar tab

intro

e|---------------------------------------------------------------------------|

B|---------------------------------------5x----------------------------------|

G|--------10101010-----------------------------------------------------------|

D|--7777--10101010-10101010-12121212-----------------------------------------|

A|--7777---8-8-8-8-10101010-12121212-----------------------------------------|

E|--5555------------8-8-8-8-10101010-----------------------------------------|

chorus

e|---------------------------------------------------------------------------|

B|---------------------4x----------------------------------------------------|

G|---------------------------------------------------------------------------|

D|--7777-X-654---------------------------------------------------------------|

A|--7777-X-654---------------------------------------------------------------|

E|--5555-X-432---------------------------------------------------------------|

Verse

e|---------------------------------------------------------------------------|

B|---------------------------------------------------------------------------|

G|---------10101010----------------------------------------------------------|

D|---7777--10101010--10101010--12121212--------------------------------------|

A|---7777---8-8-8-8--10101010--12121212--------------------------------------|

E|---5555-------------8-8-8-8--10101010--------------------------------------|

play chorus again

then do this

e|---------------------------------------------------------------------------|

B|------------------------------------------2x-------------------------------|

G|--------------10-----------------------------------------------------------|

D|------7-------10--------10---------12--------------------------------------|

A|------7--------8--------10---------12--------------------------------------|

E|------5------------------8---------10--------------------------------------|

then play verse again but only 4x

then play chorus again

Get this song at:  amazon.com sheetmusicplus.com

Share your thoughts

0 Comments found