My Chemical Romance

My Chemical Romance - Im Not Okay guitar tab

I think this is 93% correct

Standard Tuning: EABGBe

Guitar 1:

intro 1

e-------------------------------------------------------------

B-------------------------------------------------------------

G------77777777777777777777777777777777-----------------------

D------xxxxxxxxxxxxxxxxxxxxxxxxxxxxxxxx-----------------------

A------55555555555555555555555555555555-----------------------

E-------------------------------------------------------------

Guitar 2:

intro 2

e-------------------------------------------------------------

B-------------------------------------------------------------

G------7777777777777777-7-7-----------------------------------

D------7777777777777777-7-7-----------------------------------

A------5555555555555555-5-5-----------------------------------

E-------------------------------------------------------------

pm ................

Guitar 1

intro part 2/chorus

e---------------------------------------------------------------------------------------------------

B---------------------------------------------------------------------------------------------------

G--19-19-19-19-19-19-19-19-14-14-14-14-14-14-14-14-12-12-12-12-12-12-12-12-11-11-11-11-11-11-11-11--

D---x--x--x--x--x--x--x--x--x--x--x--x--x--x--x--x--x--x--x--x--x--x--x--x-x--x--x--x--x--x--x--x---

A--17-17-17-17-17-17-17-17-12-12-12-12-12-12-12-12-10-10-10-10-10-10-10-10-9--9--9--9--9--9--9--9--- x2

E---------------------------------------------------------------------------------------------------

Guitar 1

intro part 2/chorus continues x14 x8 x8

e--------------------------------------------------|---|-------------------------------------------------|----|-----

B--------------------------------------------------|---|-------------------------------------------------|----|-----

G--12-12-12-12-12-12-12-12-12-14-14-14-14-14-14-14-|-9-|-12-12-12-12-12-12-12-12-14-14-14-14-14-14-14-14-|-16-|-18--

D---x--x--x--x--x--x--x--x--x--x--x--x--x--x--x--x-|-x-|--x--x--x--x--x--x--x--x--x--x--x--x--x--x--x--x-|--x-|--x--

A--10-10-10-10-10-10-10-10-12-12-12-12-12-12-12-12-|-7-|-10-10-10-10-10-10-10-10-12-12-12-12-12-12-12-12-|-14-|-16--

E--------------------------------------------------|---|------------------------------------------------------------

Guitar 2

intro part 2/chorus (all notes played 32 times, same muting pattern as guitar 1)

e-------------------------------------------------------------

B-------------------------------------------------------------

G------7-----------4------------------------------------------

D------7-----------4-----------2-----------7------------------

A------5-----------2-----------2-----------7------------------ x4

E------------------------------0-----------5------------------

_=================might be a (G)

Guitar 1

verse (this whole thing is played once for each change of chords)

e----------------------------------------------------------------

B----------------------------------------------------------------

G--7-7-7-7-7-7-7-7-7-7-7-7-7-7-7-7-7-7-7-7-7-6-6-7-6-6-7-6h7p6---

D--7-7-7-7-7-7-7-7-7-7-7-7-7-7-7-7-7-7-7-7-7-7-7-7-7-7-7-7-7-7---

A--5-5-5-5-5-5-5-5-5-5-5-5-5-5-5-5-5-5-5-5-5-5-5-5-5-5-5-5-5-5---

E----------------------------------------------------------------

pm . . . . . . . . . . . . . . . .

Guitar 1

intro part 2/chorus

e---------------------------------------------------------------------------------------------------

B---------------------------------------------------------------------------------------------------

G--19-19-19-19-19-19-19-19-14-14-14-14-14-14-14-14-12-12-12-12-12-12-12-12-11-11-11-11-11-11-11-11--

D---x--x--x--x--x--x--x--x--x--x--x--x--x--x--x--x--x--x--x--x--x--x--x--x-x--x--x--x--x--x--x--x---

A--17-17-17-17-17-17-17-17-12-12-12-12-12-12-12-12-10-10-10-10-10-10-10-10-9--9--9--9--9--9--9--9--- x2

E---------------------------------------------------------------------------------------------------

Guitar 1

intro part 2/chorus continues x14 x8 x8

e--------------------------------------------------|---|-------------------------------------------------|----|-----

B--------------------------------------------------|---|-------------------------------------------------|----|-----

G--12-12-12-12-12-12-12-12-12-14-14-14-14-14-14-14-|-9-|-12-12-12-12-12-12-12-12-14-14-14-14-14-14-14-14-|-16-|-18--

D---x--x--x--x--x--x--x--x--x--x--x--x--x--x--x--x-|-x-|--x--x--x--x--x--x--x--x--x--x--x--x--x--x--x--x-|--x-|--x--

A--10-10-10-10-10-10-10-10-12-12-12-12-12-12-12-12-|-7-|-10-10-10-10-10-10-10-10-12-12-12-12-12-12-12-12-|-14-|-16--

E--------------------------------------------------|---|------------------------------------------------------------

Guitar 2

intro part 2/chorus (all notes played 32 times, same muting pattern as guitar 1)

e-------------------------------------------------------------

B-------------------------------------------------------------

G------7-----------4------------------------------------------

D------7-----------4-----------2-----------7------------------

A------5-----------2-----------2-----------7------------------ x4

E------------------------------0-----------5------------------

_=================might be a (G)

Guitar 1

pre verse(this is almost the same as the verse)

e-----------------------------------------------------------

B-----------------------------------------------------------

G--7-7-7-6-6-7-7-9-7-6h7p6----------------------------------

D--7-7-7-7-7-7-7-7-7-7-7-7----------------------------------

A--5-5-5-5-5-5-5-5-5-5-5-5---------------------------------- x8

E-----------------------------------------------------------

pm . . . .

Guitar 1

intro part 2/chorus

e---------------------------------------------------------------------------------------------------

B---------------------------------------------------------------------------------------------------

G--19-19-19-19-19-19-19-19-14-14-14-14-14-14-14-14-12-12-12-12-12-12-12-12-11-11-11-11-11-11-11-11--

D---x--x--x--x--x--x--x--x--x--x--x--x--x--x--x--x--x--x--x--x--x--x--x--x-x--x--x--x--x--x--x--x---

A--17-17-17-17-17-17-17-17-12-12-12-12-12-12-12-12-10-10-10-10-10-10-10-10-9--9--9--9--9--9--9--9--- x2

E---------------------------------------------------------------------------------------------------

Guitar 1

intro part 2/chorus continues x14 x8 x8

e--------------------------------------------------|---|-------------------------------------------------|----|-----

B--------------------------------------------------|---|-------------------------------------------------|----|-----

G--12-12-12-12-12-12-12-12-12-14-14-14-14-14-14-14-|-9-|-12-12-12-12-12-12-12-12-14-14-14-14-14-14-14-14-|-16-|-18--

D---x--x--x--x--x--x--x--x--x--x--x--x--x--x--x--x-|-x-|--x--x--x--x--x--x--x--x--x--x--x--x--x--x--x--x-|--x-|--x--

A--10-10-10-10-10-10-10-10-12-12-12-12-12-12-12-12-|-7-|-10-10-10-10-10-10-10-10-12-12-12-12-12-12-12-12-|-14-|-16--

E--------------------------------------------------|---|------------------------------------------------------------

Guitar 2

intro part 2/chorus (all notes played 32 times, same muting pattern as guitar 1)

e-------------------------------------------------------------

B-------------------------------------------------------------

G------7-----------4------------------------------------------

D------7-----------4-----------2-----------7------------------

A------5-----------2-----------2-----------7------------------ x4

E------------------------------0-----------5------------------

_=================might be a (G)

Guitar 1

solo

e-----------------------------------------------------------------------

B--------14--14--14----------------------------14--14--14---------------

G--------16b-16b-16br-14-13-14-------13-14--16-16b-16b-16br-14-16-18-14-

D------------------------------14~-14-----------------------------------

A-----------------------------------------------------------------------

E-----------------------------------------------------------------------

Guitar 1

continues

e-------------------------------------------------

B-------------------------------------------------

G--14p13h14-16-14p13h14-16------------------------

D-------------------------------------------------

A-------------------------------------------------

E-------------------------------------------------

Guitar 1

continues

e---------------------------------------------------------------------

B-------------17\\\\19-17-15p14h15p14-12h14p12-10-12b-12br---------------

G---------------------------------------------------------------------

D---------------------------------------------------------------------

A---------------------------------------------------------------------

E---------------------------------------------------------------------

Guitar 1

solo ends

e-------------------------------------------------------------------------------

B-------------------------------------------------------------------------------

G----------------------12h14h16--14h16h18--18p16p14~----------------------------

D------------12h14h16-----------------------------------------------------------

A--12h14h16---------------------------------------------------------------------

E-------------------------------------------------------------------------------

Guitar 2

solo

e-------------------------------------------------------------------------

B--17--17--17--------------------------------17--17--17-------------------

G--19b-19b-19br--18-16-18----------16-18-19--19b-19b-19br-18-19-21-18-----

D-------------------------18~---18----------------------------------------

A-------------------------------------------------------------------------

E-------------------------------------------------------------------------

Guitar 2

e-------------------------------------------------------------

b-------------------------------------------------------------

g--18p16h18-21-18p16h18-21------------------------------------

d-------------------------------------------------------------

a-------------------------------------------------------------

e-------------------------------------------------------------

Guitar 2

continues

e--------------------------------------

B--------------------------------------

G--14~-14----13~-----------------------

D---------13---------------------------

A--------------------------------------

D--------------------------------------

Guitar 2

solo ends

e-------------------------------------------------------------------------------

B-------------------------------------------------------------------------------

G----------------------12h14h16--14h16h18--18p16p14~----------------------------

D------------12h14h16-----------------------------------------------------------

A--12h14h16---------------------------------------------------------------------

E-------------------------------------------------------------------------------

Guitar ?

(solo rhythm )

e------------------------------------------------------------------

B------------------------------------------------------------------

G------------------------------------------------------------------

D--9-9-9-9-7-7-7-7-6-6-6-6-2-2-2-2-7-7-7-7-6-6-6-6-4-4-4-4-2-2-2-2-

A--9-9-9-9-7-7-7-7-7-7-7-7-2-2-2-2-7-7-7-7-7-7-7-7-4-4-4-4-2-2-2-2-

E--7-7-7-7-5-5-5-5-4-4-4-4-0-0-0-0-5-5-5-5-4-4-4-4-2-2-2-2-0-0-0-0-

e-----------------------------------|-----------

B-----------------------------------|-----------

G-----------------------------------|-----------

D--9-9-9-9-7-7-7-7-6-6-6-6-2-2-2-2--|--7--------

A--9-9-9-9-7-7-7-7-7-7-7-7-2-2-2-2--|--7-------- x34

E--7-7-7-7-5-5-5-5-4-4-4-4-0-0-0-0--|--5--------

pm .

Piano---------------------------------|Guitar 1,2

bridge |

e--------5----------------------------|--------------------------|-----

B----------8p7p5---5-------7-------5--|--------------------------|-----

G------7---------7-------7-------7----|-----------4~-------------|-----

D----7-----------------7-------7------|--+7-------4~-----2----7~-|--7--

A--5-----------------5-------5--------|--+5-5q-4q-2~-----2----7~-|--7--

E-------------------------------------|------------------0----5~-|--5--

pm Distorted .(x10)

Guitar 1

intro part 2/chorus

e---------------------------------------------------------------------------------------------------

B---------------------------------------------------------------------------------------------------

G--19-19-19-19-19-19-19-19-14-14-14-14-14-14-14-14-12-12-12-12-12-12-12-12-11-11-11-11-11-11-11-11--

D---x--x--x--x--x--x--x--x--x--x--x--x--x--x--x--x--x--x--x--x--x--x--x--x-x--x--x--x--x--x--x--x---

A--17-17-17-17-17-17-17-17-12-12-12-12-12-12-12-12-10-10-10-10-10-10-10-10-9--9--9--9--9--9--9--9--- x2

E---------------------------------------------------------------------------------------------------

Guitar 1

intro part 2/chorus continues x14 x8 x8

e--------------------------------------------------|---|-------------------------------------------------|----|-----

B--------------------------------------------------|---|-------------------------------------------------|----|-----

G--12-12-12-12-12-12-12-12-12-14-14-14-14-14-14-14-|-9-|-12-12-12-12-12-12-12-12-14-14-14-14-14-14-14-14-|-16-|-18--

D---x--x--x--x--x--x--x--x--x--x--x--x--x--x--x--x-|-x-|--x--x--x--x--x--x--x--x--x--x--x--x--x--x--x--x-|--x-|--x--

A--10-10-10-10-10-10-10-10-12-12-12-12-12-12-12-12-|-7-|-10-10-10-10-10-10-10-10-12-12-12-12-12-12-12-12-|-14-|-16--

E--------------------------------------------------|---|------------------------------------------------------------

Guitar 2

intro part 2/chorus (all notes played 32 times, same muting pattern as guitar 1)

e-------------------------------------------------------------

B-------------------------------------------------------------

G------7-----------4------------------------------------------

D------7-----------4-----------2-----------7------------------

A------5-----------2-----------2-----------7------------------ x4

E------------------------------0-----------5------------------

_=================might be a (G)

Order:

Intro 1,2

Intro part 2/chorus

Verse

Intro part 2/chorus

Pre Verse

Intro part 2/chorus

Solo and Solo rhythm

Bridge

Intro part 2/chorus

Guitar 1,2

end on

e-------

B-------

G--7~/--

D--7~/--

A--5~/--

E-------

Thats all hope you think its good. To me i think its pretty good but not 100%.E-mail psychobillypnr@yahoo.com with any comments or questions or anything : ) And please

don\\'t steel this tab from me.

------------------------------------------------------------------------

pb = pre bend

bd = bend down

b = bend up

/ = slide up

\\\\ = slide down

h = hammer-on

p = pull-off

v = vibrate

+ = harmonic

* = power harmonic

x = mute note

~ = vibrato

. = palm mute

br = release bend

tp = trem. picking

psd= pick side down

psu= pick side up

q = quiet

{} = ghost note

Get this song at:  amazon.com sheetmusicplus.com

Share your thoughts

0 Comments found