Mxpx

Mxpx - Yuri Wakes Up Screaming bass tab

Song: Yuri Wakes Up Screaming

Band: MxPx

Album: The Renaissance EP

By: BassD >=play a couple of time

ring and r=let the note sound

/=slide down \=slide up

*=a pause

Intro /Verse /Verse

G|-----------|(x2)------|(played slower)-|(x2)-------|

D|-----------|----------|----------------|-----------|

A|------/6-5-|-------3>-|---------3>-----|-------3>--|

E|-3>--------|-3>-0>----|-3>--0>---------|-3>-0>-----|

/Verse "Oh Yuri wakes up sceaming"

G|---------------------------|(x2)------|-------------|

D|---------------------------|----------|-------------|

A|---------------------------|-------3>-|-------------|

E|-1-3r--1-3r--1-3r--1-3r-3*-|-3>-0>----|-3-3*--------|

/Verse Then

G|(played slower)-|(x4)------|(Yuri talks and says Mommy)-|

D|----------------|----------|----------------------------|

A|---------3>-----|-------3>-|----------------------------|

E|-3>--0>---------|-3>-0>----|-3ring----------------------|

Cool Part

G|-------------------6-----5-------------------6-----5-

D|-----------------5-----4-------------------5-----4---

A|---------------6-----5-------------------6-----5-----

E|-3-3-3-0-0-0-0-------------3-3-3-0-0-0-0-------------

G|-------------------6------5---------------|

D|-----------------5------4-----------------|

A|---------------6-----5------3>-/6>--------|

E|-3-3-3-0-0-0-0---------------------3ring--|End

The Entire New MxPx cd tabbed in 2 days well how about that!

Enjoy!

If you ever want to buy the new cd The Renaissance EP write me

and I will tell you somethings you should know about the cd.

rancid_ska@hotmail.com

Get this song at:  amazon.com sheetmusicplus.com

Share your thoughts

0 Comments found