Mudvayne

Mudvayne - 1 guitar tab

Artist: Mudvayne

Album: L.D. 50

E-mail: blaz3rnat3@yahoo.com

Tabber: Nate Patterson

Tuning: Drop D, Down 1 1/2 Steps (B,F#,B,E,G#,C#)

Setup: Gurgg plays a Gibson Les Paul Custom (many actually) as

well as Flying V's, he uses a Mesa Boogie Dual Rectifier

for his distortion which is hooked up to a Mesa Boogie

4X12 Cabinet, with a lead into an A/B Switch box, which

connects to a Roland J120/140 Jazz Amp stacked w/ another

Boogie 4X12 Cabinet for clean tones, a Morley Bad Horsie

Wah Wah, Line 6 DL-4 Delay Modeler Pedal, and Shure Wireless

System.

This is 100% Correct, this is how Gurgg plays it, if you don't believe

me download the -1 video on www.winmx.com of Mudvayne's BIG DAY OFF

Tour, you'll see what I mean

INTRO

|-----------------------------------------------------------|

|-----------------------------------------------------------|

|-----------------------------------------------------------|

|-0-0-0-0-0-0-0-0-0-0-0-0/-0--0-0-0-0-0-0-0-0-0-0-0-0-----|

|-8-8-8-8-8-8-8-8-8-8-8-8/10-107-7-7-7-7-7-7-7-7-7-7-7-X-X-|

|-------------------------------------------------------7-7-|

VERSE A: Gurgg actually plays the same notes but a different

amount of times each verse, there are only 2 different ways

so don't worry! :)

|-------------------------------------------------------------------|

|-------------------------------------------------------------------|

|-------------------------------------------------------------------|

|-0-0-0-0-0-0-0-0-0-0-0-0-0-0/-0--0-0-0-0-0-0-0-0-0-0-0-0-0-0-----|

|-8-8-8-8-8-8-8-8-8-8-8-8-8-8/10-107-7-7-7-7-7-7-7-7-7-7-7-7-7-X-X-|

|---------------------------------------------------------------7-7-|

VERSE B:

|-----------------------------------------------------------|

|-----------------------------------------------------------|

|-----------------------------------------------------------|

|-0-0-0-0-0-0-0-0-0-0-0-0/-0--0-0-0-0-0-0-0-0-0-0-0-0-----|

|-8-8-8-8-8-8-8-8-8-8-8-8/10-107-7-7-7-7-7-7-7-7-7-7-7-X-X-|

|-------------------------------------------------------7-7-|

CHORUS:

|-------------------------|

|-------------------------|

|-------------------------|

|-------------------------|

|-3^0-0^4-3^0--3^0-0-0--0-|

|-3^0-----3^0--3^0-0-0--0-|

INTERLUDE:

|-------------------------------|

|-------------------------------|

|-------------------------------|

|-------------------------------|

|-2^3-2^3/53-2^3-2^3-2^3/53/5-|

|-2^3-2^3/53-2^3-2^3-2^3/53/5-|

INTERLUDE 2:

|-----------------------------------------------------------|

|-----------------------------------------------------------|

|-----------------------------------------------------------|

|-----------------------------------------------------------|

|-2^3-2^3/53-2^3-2^3-2^3-XX-X-2^3-2^3/53-2^3-2^3-2^3-XX-X-|

|-2^3-2^3/53-2^3-2^3-2^3-XX-X-2^3-2^3/53-2^3-2^3-2^3-XX-X-|

CONTINUED......

|------------------------------------------------------|

|------------------------------------------------------|

|------------------------------------------------------|

|------------------------------------------------------|

|-2^3-2^3/53-2^3-2^3-2^3-XX-X-2^3-2^3/53-2^3-2^3-2^3-|

|-2^3-2^3/53-2^3-2^3-2^3-XX-X-2^3-2^3/53-2^3-2^3-2^3-|

BRIDGE: (W/ DELAY/ECHO)

|---------12----------------------------------------|

|-12---------12----12h13p12--10-----12-10----10-9---|

|----10/9-------10--------------10--------10------9-|

|---------------------------------------------------|

|---------------------------------------------------|

|---------------------------------------------------|

CHORUS 2:

|--------------------------------------------------|

|--------------------------------------------------|

|--------------------------------------------------|

|--------------------------------------------------|

|-3^0-0^4-3^0--3^0-0-0--0--3^0-0^4-3^0--3^0-0-0--0-|

|-3^0-----3^0--3^0-0-0--0--3^0-----3^0--3^0-0-0--0-|

|-------------------------------------------------|

|-------------------------------------------------|

|-------------------------------------------------|

|-------------------------------------------------|

|-3^0-0^4-3^0--3^0-0-0--0--3^0-0^4-3^0--3^0-0-17-|

|-3^0-----3^0--3^0-0-0--0--3^0-----3^0--3^0-0-17-|

|-----------------------------------------------|

|-----------------------------------------------|

|-----------------------------------------------|

|-----------------------------------------------|

|-3^0-0^4-3^0--3^0-0-XX-X-3^0-0^4-3^0--3^0-XXXX-|

|-3^0-----3^0--3^0-0-XX-X-3^0-----3^0--3^0-XXXX-|

|---------------------------------------------------------------|

|---------------------------------------------------------------|

|---------------------------------------------------------------|

|---------------------------------------------------------------|

|-3^0-0^4-3^0--3^0-0-XX-X--3^0-0^4-3^0--3^0-0-XX-X--3^0-0^4-3^0-|

|-3^0-----3^0--3^0-0-XX-X--3^0-----3^0--3^0-0-XX-X--3^0-----3^0-|

Order:

Intro X1

Verse A X 1

Verse B X 1

Verse A X 1

Verse B X 1

Chorus X 8

Verse A X 1

Verse B X 1

Verse A X 1

Verse B X 1

Chorus X 12

Interlude X 7

Interlude 2 X 1

Bridge X 7

Chorus 2 X 1

=======================================================

Artist: Mudvayne

Song: -1

Album: L.D 50

This is my first tab so if you think its unaccurate or wrong then

thats cool with me.This song sounds pretty correct to me. If im wrong or

right then just write down your comments.

Tuning is drop B like all other mudvayne songs.

losses, losers and more.....

verse

-----------------------------------------------

-----------------------------------------------

-----------------------------------------------

-----------------------------------------------

33333333333333552222222222222200---------------

-----------------------------------------------

heavy part (come on youweretheone youweretheone...)

-----------------------------------------------

-----------------------------------------------

-----------------------------------------------

-----------------------------------------------

2h32h42h3-2h3-00-0-0---------------------------

2h32h42h3-2h3-00-0-0---------------------------

play this 2 times

When Kud starts singin tell me what am i suppoed to be,change to this:

-----------------------------------------------

-----------------------------------------------

-----------------------------------------------

-----------------------------------------------

2h32h42h3-00-0-0-0--------------------------------

2h32h42h3-00-0-0-0--------------------------------

after that play the verse again and then the heavy part.

Then play this when kud screams tell me now!

-----------------------------------------------

-----------------------------------------------

-----------------------------------------------

-----------------------------------------------

2h32h42h3-2h3-00-0-0---------------------------

2h32h42h3-2h3-00-0-0---------------------------

(pain misery distress dismal......)

-----------------------------------------------

-----------------------------------------------

-----------------------------------------------

-----------------------------------------------

2h32h32h32h32h32h32h32h3-----------------------

2h32h32h32h32h32h32h32h3----------------------- just keep repeating this until that part ends.

-----------------------------------------------

-----------------------------------------------

-----------------------------------------------

-----------------------------------------------

2h32h32h32h32h32h3-xx-x------------------------

2h32h32h32h32h32h3-xx-x------------------------

the "dont feel sorry for me" part is really weird and i dont know how to play that.

after that part just repeat the "heavy riff" and then the one above.

ok......here u go. Thats my version of the song -1. I think im pretty accurate.

hope u like it. Write your comments and what u think of it.

Get this song at:  amazon.com sheetmusicplus.com

Share your thoughts

0 Comments found