Mr Bungle

Mr Bungle - Quote Unquote guitar tab

#

QUOTE UNQUOTE

Performed By Mr.Bungle

From The Album MR.BUNGLE

Transcribed By Derek Cornelius (des@eisa.net.au)

Drop D Tuning

(6)=D

~~~~~ ~~~~~ ~~~~~ ~~~~ ~~~~ ~~~~~~

E-|--------------------------------------------------------------------------|

B-|--------------------------------------------------------------------------|

G-|--------------------------------------------------------------------------|

D-|--------------------------------------------------------------------------|

A-|-4-------1-------0-------4--------1-------0-----------4---4---4---4-------|

D-|-4-------1-------0-------4--------1-------0-----------4---4---4---4-------|

E-|--------------------------------------------------------------------------|

B-|--------------------------------------------------------------------------|

G-|--------------------------------------------------------------------------|

D-|--------------------------------------------------------------------------|

A-|--1--1-----0--0---------4---4---4---4---1---1--1--1-----------------------|

D-|--1--1-----0--0---------4---4---4---4---1---1--1--1-----------------------|

P.M---->

E-|--------------------------------------------------------------------------|

B-|--------------------------------------------------------------------------|

G-|-------------------------------------------------------------repeat-------|

D-|--------------------------------------------------------------------------|

A-|-0--0--0-------0---0-----------8--8---7--7---4--4----1--1-----------------|

D-|-0--0--0-------0---0-----------8--8---7--7---4--4----1--1-----------------|

Lead bit

~~~~~~~~~~~~~~~ ~~~~~~~~~~~~~ ~~~~~~~~~~

E-|--------------------------------------------------------------------------|

B-|--------------------------------------------------------------------------|

G-|--6-----------------6-5--------------slide up--9-------------repeat-------|

D-|--------------------------------------------------------------------------|

A-|--------------------------------------------------------------------------|

D-|--------------------------------------------------------------------------|

(CD@1.55)

keep going up.... just improvise (i do?)

E-|--------------------------------------------------------------------------|

B-|--------------------------------------------------------------------------|

G-|--------------------------------------------------------------------------|

D-|--------------------------------------------------------------------------|

A-|-0--2---3---5---6----7---8------------------------------------------------|

D-|-0--2---3---5---6----7---8------------------------------------------------|

Well thats all I have got of this song...

Get this song at:  amazon.com sheetmusicplus.com

Share your thoughts

0 Comments found