Moonspell

Moonspell - Wolfshade guitar tab

MOONSPELL ~ WOLFSHADE (A WEREWOLF MASQUERADE) Tablature

(c) Tab by Angriphist

INTRO:

Em Em(sus2) Em Em(sus2) Cm Cm(sus2) Em Em(sus2) . . .

E-----7------7------7------7---||------3----3---||----7---7---7----7--||

B-----8------7------8------7---||------4----3---||----8---7---8----7--||

G-----9------9------9------9--*||*-----5----5--*||*---9---9---9----9-*||

D-----9------9------9------9--*||*-----5----5--*||*---9---9---9----9-*||

A-----7------7------7------7---||---3-----3-----||----7---7---7----7--||

E--0------0------0------0------||---------------||--0---0---0----0----||

clean gtr. w/ chorus\\flanger let ring

E------3-----3------3------3--------------------------------------------

B------4-----3------4------3--------------------------------------------

G------5-----5------5------5--------------------------------------------

D------5-----5------5------5--------------------------------------------

A---3------3-----3------3-----------------------------------------------

E-----------------------------------------------------------------------

Riff A (end Riff A)

E------------------------------------------|-

B------------------------------------------|-

G------------------------------------------|-

D---5--5--5------/5--4---2--2--4--5--------|-

A---3--3--3--------------------------3~~~--|-

E-------------0----------------------------|-

P.M.- -|

w/heavy dist.

Gtrs.I & II: repeat Riff A (3 times)

VERSE 1:

Gtrs.I & II: play Riff A (8 times)

Riff B (Gtr.I) (end Riff B)

E-------------------------------------------------|-

B-------------------------------------------------|-

G---------0---------------------0-----------------|-

D-------2--------2--4--------2-----4--2--1--------|-

A-----2--------2----------2-----------------3-----|-

E---0--------0---------0--------------------------|-

Riff B (Gtr.II) (end Riff B)

E-------------------------------------------------|-

B-------------------------------------------------|-

G----------------------------------5--------------|-

D---2------------------------------5--------------|-

A---2------------------------------3--------------|-

E---0---------------------------------------------|-

Gtrs.I & II: repeat Riff B (2 times)

Fill 1 (both gtrs.)

E---------------------------------------------------------------------|-

B---------------------------------------------------------------------|-

G---------------------------------------------------------------------|-

D---------------------------------------------------------------------|-

A--------------2--2--2--2--2--2--2--2--2---2---3--3-------------------|-

E--0--0--0--0--0--0--0--0--0--0--0--0--0---0---1--1-------------------|-

P.M.- - - - - - - - - -| P.M.

CHORUS:

Gtrs.I & II: play Riff B (8 times)

Riff C (Gtr.II) (end Riff C)

E------------------------------------------------|-

B--------1--------0---------1--0-----------------|-

G------2--------2--------2--------2---1~~~-------|-

D----2--------2--------2-------------------------|-

A--0--------0--------0---------------------------|-

E------------------------------------------------|-

clean

Gtr.II: repeat Riff C (3 times)

Gtr.I : enters w/ Fill 2 on 3rd time Riff C

Fill 2 (Gtr.I)

E-----------------------------------------------------|-

B-----------------------------------------------------|-

G--2-------------------2------------------------------|-

D--2-------------------2------------------------------|-

A--0-------------------0-------------0-0-0-0-0-0-0-0--|-

E-----------------------------------------------------|-

w/dist. P.M.- - - - - -|

Gtrs.I & II: play Riff B (3 times)

Gtrs.I & II: play Fill 1

CHORUS:

Gtrs.I & II: play Riff B (8 times)

Gtr.II: play Riff C (3 times)

Gtr.I : enters w/ Fill 2 on 3rd time Riff C

Gtrs.I & II: play Riff A (4 times)

VERSE 2:

Gtrs.I & II: play Riff A (4 times)

INTERLUDE:

(Bass)

Gtr.II (two upper notes) & Gtr.III (one lower note)

E-----------------------------------------------------------------------

B----1-------------------------1----------------------------------------

G----2-------4------2-----1----2---------4--------2-------1-------------

D------------5------3-----2--------------5--------3-------2-------------

A----0-------------------------0----------------------------------------

E------------3------1-----0--------------3--------1-------0-------------

fade in w/ volume knob

all notes w/ slight vibrato during interlude

Gtr.II (upper note) & Gtr.III (lower note)

E--------------------------------------------------------------------|--

B--------------------------------------------------------------------|--

G----2-----5----4-----2------2-----5-----4------2--------------------|--

D----------2-----------------------2---------------------------------|--

A----0----------5-----3------0-----------5------3--------------------|--

E--------------------------------------------------------------------|--

(Gtr.I fades in with feedbck.)

GUITAR SOLO

(for Gtr.II see below)

Gtr.I

E-||----------------------------------------------------------------------

B-||---10-------10---10---10---10---8---8---10------10---10---10---10-----

G-||*------13^--13^--13^--13^--13^-------------13^--13^--13^--13^--13^----

D-||*---------------------------------------------------------------------

A-||----------------------------------------------------------------------

E-||----------------------------------------------------------------------

w/dist.

_____________

| 1.

E-----------------------------------------------------------------------

B--12---12----10------10--10--10--10--8--8--10-----10--10--10--10-------

G-----------------13^-13^-13^-13^-13^----------13^-13^-13^-13^-13^------

D-----------------------------------------------------------------------

A-----------------------------------------------------------------------

E-----------------------------------------------------------------------

____________ __________

|| 2. P.H. (Pinch Harmonic)

E-------------||--------------------------------------------------------

B--10--10-----||--12--12--12--12-----------17~~~----15--17--15--17------

G--13^-------*||--15^-15^-15^-15^---------------------------------------

D------------*||--------------------------------------------------------

A-------------||--------------------------------------------------------

E-------------||--------------------------------------------------------

E-----------------------------------------------------------------------

B---20----17h20p17p15--17------17--20----15------------15---------------

G---------------------------------------------17---16-------------------

D-----------------------------------------------------------------------

A-----------------------------------------------------------------------

E-----------------------------------------------------------------------

E-----------------------------------------------------------------------

B----15---------------------------------------------------15-----17-----

G--------17--16-----17--16--14---16--14-------14---14--------14---------

D-----------------------------------------17----------------------------

A-----------------------------------------------------------------------

E-----------------------------------------------------------------------

E-----------------------------------------------------------------------

B----------18------17------15------17-------18-------17-------15--------

G----14--------14------14------14------14--------14------14-------------

D-----------------------------------------------------------------------

A-----------------------------------------------------------------------

E-----------------------------------------------------------------------

E------------------------------------t-----t-----t-----t-----t-----t----

B---15-----13-/-15-------------------15-12-15-12-15-12-15-12-15-12-15-12

G----------12-/-14---14--14~~~~-----------------------------------------

D-----------------------------------------------------------------------

A-----------------------------------------------------------------------

E-----------------------------------------------------------------------

(use edge of pick for tapping)

E--t-----t-----t-----t-----t-----t-------t-----t-----t-----t-----t------

B--15-12-15-12-15-12-15-12-15-12-15-12---17-12-17-12-17-12-17-12-17-12--

G-----------------------------------------------------------------------

D-----------------------------------------------------------------------

A-----------------------------------------------------------------------

E-----------------------------------------------------------------------

E--t-----t-----t-----t-----t-----t-----t-------t-----t-----t-----t------

B--17-12-17-12-17-12-17-12-17-12-17-12-17-12---18-12-18-12-17-12-17-12--

G-----------------------------------------------------------------------

D-----------------------------------------------------------------------

A-----------------------------------------------------------------------

E-----------------------------------------------------------------------

E--t-----t-----t-----t-----t-----t-----t-----t-----t-----t-----t-----t--

B--15-12-15-12-17-12-17-12-18-12-18-12-17-12-17-12-15-12-15-12-17-12-17-

G-----------------------------------------------------------------------

D-----------------------------------------------------------------------

A-----------------------------------------------------------------------

E-----------------------------------------------------------------------

E----t-----t-----------------12--13--15----15p13p12--13----12--13--15---

B-12-15-12-15-12-/17~~~~------------------------------------------------

G-----------------------------------------------------------------------

D-----------------------------------------------------------------------

A-----------------------------------------------------------------------

E-----------------------------------------------------------------------

E--15p13p12--13---12--13----15-13-12--15-13-12--15-13-12--15-13-12------

B-----------------------------------------------------------------------

G-----------------------------------------------------------------------

D-----------------------------------------------------------------------

A-----------------------------------------------------------------------

E-----------------------------------------------------------------------

E--15-13-12--15-13-12---15-15-17-17--19--19^19-------------12^--12--12--

B------------------------------------------------17---------------------

G-----------------------------------------------------------------------

D-----------------------------------------------------------------------

A-----------------------------------------------------------------------

E-----------------------------------------------------------------------

E---19--19--17-15--17--19--17--15--17--15----15p14p12-15p14p12----------

B-----------------------------------------------------------------------

G-----------------------------------------------------------------------

D-----------------------------------------------------------------------

A-----------------------------------------------------------------------

E-----------------------------------------------------------------------

E---15p14p12----17p15p14--17p15p14-------14--15-15--17--17--19--19------

B------------------------------------17---------------------------------

G-----------------------------------------------------------------------

D-----------------------------------------------------------------------

A-----------------------------------------------------------------------

E-----------------------------------------------------------------------

E--22^--22^--22^---22^--22^--22^--22^-~~~~~~~-------------------------|-

B---------------------------------------------------------------------|-

G---------------------------------------------------------------------|-

D---------------------------------------------------------------------|-

A---------------------------------------------------------------------|-

E---------------------------------------------------------------------|-

During gtr.I solo, gtr.II play:

Rhy.Fig.1 (see below) (4 times)

Rhy.Fig.2 (see below) (4 times)

Riff B (part of Gtr.I) (3 times)

Fill 1

Rhy.Fig.1 (Gtr.II) (End Rhy.Fig.1)

E---------------------------------------------------------------------|-

B---------------------------------------------------------------------|-

G--2------------------------------------------------------------------|-

D--2----------------2-----------------------------1-------------------|-

A--0----------------0-----------------------------0-------------------|-

E--------------3------------------------------------------------------|-

Rhy.Fig.2 (Gtr.II) (End Rhy.FIg.2)

E---------------------------------------------------------------------|-

B---------------------------------------------------------------------|-

G--2---------------5--------------------------------------------------|-

D--2---------------5--------------5-------------3--3-----3-----3------|-

A--0---------------3--------------5-------------3--3-----3-----3------|-

E---------------------------------3-------------1--1-----1-----1------|-

P.M.

CHORUS:

Gtrs.I & II: play Riff B (8 times)

Gtr.II: play Riff C (4 times)

Gtr.I : enters w/ Fill 2 on 3rd time Riff C

Gtrs.I & II: play Riff A (4 times)

VERSE 3:

Gtrs.I & II: play Riff A (4 times)

OUTRO:

Gtr.I sustain open e-chord on 7th fret.

Gtr.II

E-------7-------7-------7------7-----------0-------------------------||

B-------8-------7-------8------7----\\------0-------------------------||

G-------9-------9-------9------9----\\------0-------------------------||

D-------9-------9-------9------9----\\------2-------------------------||

A-------7-------7-------7------7----\\------2-------------------------||

E----0-------0-------0------0--------------0-------------------------||

clean let ring w/ chorus\\flanger

========================================================================

== TABLATURE EXPLANATION ==

========================================================================

---------- ---------- ----t---

----5h8--- Hammeron ----(8)--- Ghost ----6--- Tap

---------- ---------- Note --------

----5p8--- Pulloff ---------- --------

---------- ---------- -----p--

----5/8--- Slide Up -----x---- Dead -----7-- Pop

---------- ---------- Note --s-----

----5\\8--- Slide Down ---------- --5----- Slap

---------- ||------|| Repeat --------

----5~~~-- Vibrato ||*----*|| ---5^--- Bend

---------- ||*----*|| --------

---------- ||------|| --------

---------- ----/----- Tremolo Pick --------

-4:------- Time ----/----- (pick as fast -------- Play notes

-4:------- Signature ----/----- & continously ---5---- palm muted.

---------- ----5----- as possible) ---3----

P.M.- -|

Rhythm:

w = whole note W = dotted whole

h = half note H = dotted half

q = quarter note Q = dotted quarter

e = eighth note E = dotted eighth

s = sixteenth note S = dotted sixteenth

t = 32nd note T = dotted 32nd

x = 64th note X = dotted 64th

^ = triplet

Get this song at:  amazon.com sheetmusicplus.com

Share your thoughts

0 Comments found