Moonspell

Moonspell - Vampiria guitar tab

MOONSPELL

'Vampiria'

Got this from the oficial french Moonspell website : www.moonspell.fr.st

from the album 'Wolfheart'

use these riffs through the whole song.

guitar starts at 2:31.

(h.)

pm. . . . . . . . . . .

|-------------------------------------------------------------------------------|

|-------------------------------------------------------------------------------|

|-------------------------------------------------------------------------------|

|------------9--8-------------9-10--9-------------9--8---------7----------5-----|

|--2---------7--6---2---------7--8--7---2---------7--6--------------------------|

|--0---0--0---------0---0--0------------0---0--0---------0--0----0--0--0--------|

pm. . . . . . . . .

|-------------------------------------------------------------------------------|

|-------------------------------------------------------------------------------|

|-------------------------------------------------------------------------------|

|------------9--8-------------9-10--9-------------9--8---------7---5-6-5-7------|

|--2---------7--6---2---------7--8--7---2---------7--6---7--7----7--------------|

|--0---0--0---------0---0--0------------0---0--0--------------------------------|

pm. . . . . . . . . . . . . . . . . . . . . . . . . . .

|------------------------------------------------------------------------------------------------------|

|------------------------------------------------------------------------------------------------------|

|------------------------------------------------------------------------------------------------------|

|--2---2--2--2-2-2--2-2-2----4---4--4--4-4-4--4-4-4----5---5--5--5-5-5--5-5-5----7---7--7--------------|

|--2---2--2--2-2-2--2-2-2----4---4--4--4-4-4--4-4-4----5---5--5--5-5-5--5-5-5----7---7--7-----7--9-10--|

|--0---0--0--0-0-0--0-0-0----2---2--2--2-2-2--2-2-2----3---3--3--3-3-3--3-3-3----5---5--5--7-----------|

pm. . < pick quietly >

|-----------------------------------------3--------2---------|

|--------------------------------------------4--------3------|

|-----------------------------------------------5--------4---|

|--7----9----5----7----2--3--2---2--2--2---------------------|

|--5----7----3----5----0--1--0---0--0--0---------------------|

|------------------------------------------------------------|

Get this song at:  amazon.com sheetmusicplus.com

Share your thoughts

0 Comments found