Moonspell

Moonspell - Trubaruna bass tab

->MOONSPELL "TRUBARUNA"

->Tabbed by: Vasquez [PL]

*****************************************************

If You like Moonspell, there is a TAB for you!

It's quite easy, and it's a good way to

practise "Thumb" technique which is written in the end

of the document.....

*****************************************************

->Main RIFF)

Play this couple of times (I don't know exactly how many)

G -----------------------------------------

D -----------------------------------------

A ------------------------7-7-7-5-5-5-5----

E --0-0-0-0-7-7-3-3-3-3-3------------------

G -----------------------------------------

D -----------------------------------------

A -----------------------------------------

E --0-0-0-0-7-7-3-3-3-3-3-8-8-8-7-7-7--0---

Now..Play this (when they are singing "Trubaruna blah blah blah")

G -----------------------------------------

D -----------------------------------------

A -----------------------------------------

E -0-0-0-0-0-0-0-0-0-0-0-0-0-0-0-0-0-0-0-0-

Bass SOlo (Now You can practise your thumb technique)

G -

D - THE SAME AS IN MAIN RIFF!

A -

E -

--------------------------------------------

End of file.

--------------------------------------------

Greetings for: Jeziorek Marcin, Leszek Wojcik, Marcin Czula

Get this song at:  amazon.com sheetmusicplus.com

Share your thoughts

0 Comments found