Moonspell

Moonspell - Trebraruna guitar tab

MOONSPELL - "Trebraruna"

from the album "Wolfheart"

transcribed by Haris Durakovic

Riff 1

|------------------------------------------------------------|

|------------------------------------------------------------|

|-----------4-----------------------------9---------7--------|

|-2---------4--4-4-4--5---------5--5--5---9--9-9-9--7--7-7-7-|

|-2--2-2-2--2--2-2-2--5--5-5-5--5--5--5---7--7-7-7--5--5-5-5-|

|-0--0-0-0------------3--3-3-3--3--3--3----------------------|

|------------------------------------------------------------|

|------------------------------------------------------------|

|-----------4-----------------------------5---------4--------|

|-2---------4--4-4-4--5---------5--5--5---5--5-5-5--4--4-4-4-|

|-2--2-2-2--2--2-2-2--5--5-5-5--5--5--5---3--3-3-3--2--2-2-2-|

|-0--0-0-0------------3--3-3-3--3--3--3----------------------|

Riff 2

|---------------------------------------------------------|

|---------------------------------------------------------|

|---------------------------------------------------------|

|-7--9----------------7--7-7-7----------------7-----------|

|-------10--10-10-10------------9--9-9-9--10-----9--9-9-9-|

|---------------------------------------------------------|

|------------------------|

|------------------------|

|------------------------|

|------------------------|

|-10--10-10-10--7--7-7-7-|

|------------------------|

|---------------------------------------------------------|

|---------------------------------------------------------|

|---------------------------------------------5-----------|

|-7--9----------------7--7-7-7-------------9--7--7--7-7-7-|

|-------10--10-10-10------------9--9-9-9--10-----9--9-9-9-|

|---------------------------------------------------------|

|------------------------|

|------------------------|

|------------------------|

|--9---9--9--9--5--5-5-5-|

|-10--10-10-10--7--7-7-7-|

|------------------------|

Lead on riff 1 transcribed for guitar

|----------------------12-10---------------------------------------|

|-----------------------------12-13----------------------10-8--7-8-|

|-9--8-9-11-12-11-9-9----------------9--8-9-11-12-11-9-9-----------|

|------------------------------------------------------------------|

|------------------------------------------------------------------|

|------------------------------------------------------------------|

Get this song at:  amazon.com sheetmusicplus.com

Share your thoughts

0 Comments found