Moonspell

Moonspell - The Hanged Man guitar tab

MOONSPELL - The Hanged Man

(from SIN/PECADO)

Tabbed by Alex Averson(AAverson@evr.ee), some additions by Neg

Riff 1 (Verse): clean sound

x4| {before the chorus}

|------------------------------|------------

|------------------------------|------------

|------------------------------|------------

|--0h1p0-------5---3--3---1----|--0--1-3---

|------------------------------|------------

|----------3-------------------|------------

Riff 2 (Chorus):

{These chords are played during the chorus, listen to the song to catch the

rhythm}

|---2-----3-----2-----5------------

|---3-----3-----2-----5------------

|---4-----4-----4-----6------------

|---4-----4-----4-----6------------

|----------------------------------

|----------------------------------

Riff 3 (Distorted):

{w/distortion} clean sound

|---------------------|----------------

|---------------------|--8-6-6-8---(6)-

|---------------------|----------7-----

|----8~---10~---------|----------------

|----6~----8~---5~----|----------------

|---------------3~----|----------------

Riff 4 (The ending): clean sound

|---------------------------1------

|---------------------------4------

|--------------3---2--2-----3------

|--0h1p0-------5---3--3------------

|----------------------------------

|----------3-----------------------

Get this song at:  amazon.com sheetmusicplus.com

Share your thoughts

0 Comments found