Moonspell

Moonspell - Tenebrarium Oratorium guitar tab

MOONSPELL

'Tenebrarium Onatorium

(Andamento I / Erudit Compenduym)

(Interludium / Incantatum Oequinoctium)'

from the ep 'Under The Moonspell'

transcribed by

Tero Liimatainen (magics5@usa.net)

find more metal tablatures at

http://venus.spaceports.com/~metaltab/

Only the intro riff (and it's wrong, I think), sorry.

I can't hear guitar under vocals and other instruments

very well, so this is all I got. I will MAYBE tab more

later.

intro

=====

(first guitar 1 plays part 1 and lets last few notes ring,

then guitar 2 plays the same, starting point marked with *,

then part 2 simile and continue again from part 1 simile)

part 1 __________________________________

| let ring

|--------------------------2-------------------------------------|

|----------------------------2-----------------------------------|

|------------------------------2---------------------------------|

|--5--6-----4--------2-------------------------------------------|

|--3--4-----2--2--2--2---------------*---------------------------|

|--------------0--0--0-------------------------------------------|

part 2 __________________________________

| let ring

|--------------------------2-------------------------------------|

|----------------------------2-----------------------------------|

|------------------------------2---------------------------------|

|--5--7-----4--------2-------------------------------------------|

|--3--5-----2--2--2--2-------------------------------------------|

|--------------0--0--0-------------------------------------------|

Get this song at:  amazon.com sheetmusicplus.com

Share your thoughts

0 Comments found