Moonspell

Moonspell - Ruin And Misery guitar tab

MOONSPELL ~ RUIN & MISERY Tablature

(c) Tab by Michael

VERSE 1:

(keyboard & vocals)

CHORUS:

(Rhy.Fig.1)

E-----------------------------------------------------------------------

B-----------------------------------------------------------------------

G---2-----------2p0h2-----2p0h2---2p0h2p0h2------3/5-5-5----------------

D---0---0-0-0-0-0-(0)-0-0-0-(0)-0-0-(0)-(0)----3-----------------5------

A-------------------------------------------1-----------------5----5----

E---------------------------------------------------------3-------------

dist. gtr.

(end Rhy.Fig.1)

E-----------------|-

B-----------------|-

G--0h2--2--2--2---|-

D-----------------|-

A-----------------|-

E-----------------|-

repeat Rhy.Fig.1 (3 times)

VERSE 2:

E-----------------------|-

B----3------------------|-

G----2------------------|- let sound until faded away.

D----0------------------|-

A-----------------------|-

E-----------------------|-

(keyboard, drums & vocals)

CHORUS:

play Rhy.Fig.1 (2 times)

BRIDGE:

E-----------------------------------------------------------------------

B-----------------------------------------------------------------------

G---2-(2)--------------------------------------------3-(3)--------------

D---0-(0)--0--0--0--0--0--0--0--0--0--0--0--0--0--0--3-(3)--------------

A----------------------------------------------------1-(1)-1--1--1--1---

E-----------------------------------------------------------------------

P.M.- - - - - - - - - - - - - - - - - - -| P.M.- - - -

E-----------------------------------------------------------------------

B-----------------------------------------------------------------------

G------------------------------------------------------2-(2)------------

D-------------------------------3-(3)------------------2-(2)------------

A-1--1--1--1--1--1--1--1--1--1--3-(3)------------------0-(0)-0--0--0--0-

E-------------------------------1-(1)-1--1--1--1--1--1------------------

- - - - - - - - - - - - - -| P.M.- - - - - -| P.M.- - -

E---------------------------------------------------------------------|-

B---------------------------------------------------------------------|-

G--------2-(2)--------------2--1h2p1----1-----------------------------|-

D--------0-(0)-0--0--0--0-------------3---3-2-0--3-2-0----------------|-

A--0--0------------------------------------------------0--------------|-

E---------------------------------------------------------------------|-

- - -| P.M.- - - -|

E-----------------------------------------------------------------------

B--------1-----1----------------1-----1---------------1----1------------

G-----2-----2-----2----------2-----2-----2----------2---2-----2---------

D--0-----------------0----------------------0--------------------0------

A-------------------------1---------------------------------------------

E-----------------------------------------------1-----------------------

clean gtr. let ring

E---------------------------------------------------------------------|-

B----------1------1-----------------1---------------------------------|-

G-------2-----2------2-----------2-----2------------------------------|-

D-----------------------0-----0-----------0---------------------------|-

A----0----------------------------------------------------------------|-

E---------------------------------------------------------------------|-

CHORUS:

(keyboard, drums & vox)

OUTRO:

(Rhy.Fig.2)

E----5-----5-----5---6-----5-----8---5-----5-------5---6-----5----------

B------8-----8-----8---8-----8-----8---8-------8-----8---8-----8--------

G--------7-----7---------7-----7---------7-------7---------7-----7------

D-----------------------------------------------------------------------

A-----------------------------------------------------------------------

E-----------------------------------------------------------------------

clean gtr. let ring

(End Rhy.Fig.2)

E----5h6p5----|--5-----5-----5---6-----5-----5---5-----5-6-----5--------

B----------8--|----8-----8-----8---8-----8-----8---8-------8-----8------

G-------------|------7-----7---------7-----7---------7-------7-----7----

D-------------|---------------------------------------------------------

A-------------|---------------------------------------------------------

E-------------|---------------------------------------------------------

E---5h6p5-----|-

B---------8---|-

G-------------|-

D-------------|-

A-------------|-

E-------------|-

play Rhy.Fig.2 (2 times)

CHORUS:

play Rhy.Fig.1 (4 times)

OUTRO:

E--------------||

B--------------||

G---2----------|| let sound until faded out

D---3----------||

A--------------||

E--------------||

dist. gtr.

Get this song at:  amazon.com sheetmusicplus.com

Share your thoughts

0 Comments found