Moonspell

Moonspell - Raven Claws guitar tab

MOONSPELL ~ RAVEN CLAWS Tablature

(c) Tab by Michael

INTRO:

E-----------------------------------------------------------------------

B----x-*--x----x----x----x-----x----x----x----x----x---x---x------------

G----x----x----x----x----x-----x----x----x----x----x---x---x------------

D----x----x----x----x----x-----x----x----x----x----x---x---x-----------

A----x----x----x----x----x-----x----x----x----x----x---x---x-----------

E-----------------------------------------------------------------------

*) create a soft sound by rubbing the side of the pick slide down

on the strings instead of plucking them. w/ pick

CHORUS I:

(Rhy.Fig.1) (end Rhy.Fig.1)

E---------------------------------------------------------------------|-

B---------------------------------------------------------------------|-

G---------------------------------------------------------------------|-

D---------------------------------------------------------------------|-

A--3h5-5-5---5-5-5--3h5-5-5---5-5-5--3h5-5-5---5-5-5--3h5-5-5---5-5-5-|-

E---------------------------------------------------------------------|-

dist. gtr.

repeat Rhy.Fig.1

CHORUS II:

(Rhy.Fig.2) (end Rhy.Fig.2)

E---------------------------------------------------------------------|-

B---5h6---------6----5h6--------6----5h6-------6----5h6------5h6---6--|-

G-------7-----7---7------7----7---7------7---7---7------7--------7----|-

D---------7----------------7---------------7--------------7-----------|-

A---------------------------------------------------------------------|-

E---------------------------------------------------------------------|-

dist. gtr. let ring

repeat Rhy.Fig.2

VERSE 1:

(keyboard & vox)

CHORUS I:

play Rhy.Fig.1 (2 times)

CHORUS II:

play Rhy.Fig.2 (2 times)

VERSE 2:

(keybrd. & vox)

CHORUS I:

play Rhy.Fig.1 (2 times)

BRIDGE:

Gtr.II: (w/ Gtr.I playing Rhy.Fig.2)

E-||---------------------------------------------------||-

B-||---3^^^^^^^---6^^^^^^^---5^^^^^^^---1^^^^^^^-------||-

G-||*-------------------------------------------------*||-

D-||*-------------------------------------------------*||-

A-||---------------------------------------------------||-

E-||---------------------------------------------------||-

dist. gtr.

SOLO: (will be finished soon)

Gtr.II: (w/ Gtr.I playing Rhy.Fig.1)

E---10-------10--------13p10----10--13p10----10--13p10----10------------

B-------13^------13^---------13-----------13-----------13---------------

G-----------------------------------------------------------------------

D-----------------------------------------------------------------------

A-----------------------------------------------------------------------

E-----------------------------------------------------------------------

E---13p10----10--13p10----10--13p10----10-------------------------------

B---------13-----------13-----------13----------------------------------

G-----------------------------------------------------------------------

D-----------------------------------------------------------------------

A-----------------------------------------------------------------------

E-----------------------------------------------------------------------

E-----------------------------------------------------------------------

B-----------------------------------------------------------------------

G-----------------------------------------------------------------------

D-----------------------------------------------------------------------

A-----------------------------------------------------------------------

E-----------------------------------------------------------------------

E-----------------------------------------------------------------------

B-----------------------------------------------------------------------

G-----------------------------------------------------------------------

D-----------------------------------------------------------------------

A-----------------------------------------------------------------------

E-----------------------------------------------------------------------

E-----------------------------------------------------------------------

B-----------------------------------------------------------------------

G-----------------------------------------------------------------------

D-----------------------------------------------------------------------

A-----------------------------------------------------------------------

E-----------------------------------------------------------------------

E-----------------------------------------------------------------------

B-----------------------------------------------------------------------

G-----------------------------------------------------------------------

D-----------------------------------------------------------------------

A-----------------------------------------------------------------------

E-----------------------------------------------------------------------

E-----------------------------------------------------------------------

B-----------------------------------------------------------------------

G-----------------------------------------------------------------------

D-----------------------------------------------------------------------

A-----------------------------------------------------------------------

E-----------------------------------------------------------------------

E-----------------------------------------------------------------------

B-----------------------------------------------------------------------

G-----------------------------------------------------------------------

D-----------------------------------------------------------------------

A-----------------------------------------------------------------------

E-----------------------------------------------------------------------

E-----------------------------------------------------------------------

B-----------------------------------------------------------------------

G-----------------------------------------------------------------------

D-----------------------------------------------------------------------

A-----------------------------------------------------------------------

E-----------------------------------------------------------------------

========================================================================

== TABLATURE EXPLANATION ==

========================================================================

---------- ---------- ----t---

----5h8--- Hammeron ----(8)--- Ghost ----6--- Tap

---------- ---------- Note --------

----5p8--- Pulloff ---------- --------

---------- ---------- -----p--

----5/8--- Slide Up -----x---- Dead -----7-- Pop

---------- ---------- Note --s-----

----58--- Slide Down ---------- --5----- Slap

---------- ||------|| Repeat --------

----5~~~-- Vibrato ||*----*|| ---5^--- Bend

---------- ||*----*|| --------

---------- ||------|| --------

---------- ----/----- Tremolo Pick --------

-4:------- Time ----/----- (pick as fast -------- Play notes

-4:------- Signature ----/----- & continously ---5---- palm muted.

---------- ----5----- as possible) ---3----

P.M.- -|

Rhythm:

w = whole note W = dotted whole

h = half note H = dotted half

q = quarter note Q = dotted quarter

e = eighth note E = dotted eighth

s = sixteenth note S = dotted sixteenth

t = 32nd note T = dotted 32nd

x = 64th note X = dotted 64th

^ = triplet

Get this song at:  amazon.com sheetmusicplus.com

Share your thoughts

0 Comments found