Moonspell

Moonspell - Nocturna guitar tab

Artist: Moonspell

Song: Nocturna

Album: Darkness and Hope

This is only the intro but i find it to be rather close to what it sounds like.

E--0--0-15--15--------------------

B-15-13-17--18--13--13--13--------

G-14-14-14--14----16--16--16-14---

D--0--0--0--0---------------------

A---------------------------------

E---------------------------------

E-0---0---0---1---0---------

B-3---1---0---0---2---------

G-2---2---2---2---2--------- These are the basic chords for the chorus but im not

D-0---0---3---3---2--------- exactly sure how they go but ricardo told me this is

A-----------------0--------- right and to add an open A during the chorus.

E---------------------------

Listen to the song to get the rhythm pattern in your head. Those are just the chords.

This is all I have tabbed so Far. Check back later for furhter updates...when nocturna

steals the night...

Get this song at:  amazon.com sheetmusicplus.com

Share your thoughts

0 Comments found