Moonspell

Moonspell - Luna guitar tab

normal tune: EADGBe

into riff

e|------------------------------------------------------------------|

B|------------------------------------------------------------------|

G|--2/4-4-4-7--9-4-6--9-4-5--9-4--2/4-4-4-7--9-4-6--9-4-5-----------|

D|--------------------------------------------------------7-5-3-2---|

A|--------------------------------------------------------7-5-3-2---|

E|--------------------------------------------------------5-3-1-0---|

e|------------------------------------------------------------------|

B|------------------------------------------------------------------|

G|------------------------------------------------------------------|

D|---55-4-2--------55-4-2--------55-4-3-----------------------------|

A|-2--------4-6--2--------4-6--2--------4-6--4-2--4--2-1-3-1-0------|

E|------------------------------------------------------------------|

e|--------------------------------|

B|--------------------------------|

G|--2/4-4-4-7--9-4-6--9-4-5--9-4--|

D|--------------------------------| 4times

A|--------------------------------|

E|--------------------------------|

pre-chorus no avaliable and chorus no avaliable

then listen the song and repeat this tabs.Added by tabs-database.com and our distinguished partners

Get this song at:  amazon.com sheetmusicplus.com

Share your thoughts

0 Comments found